ISO-10303-21;
HEADER;
/* Generated by software containing ST-Developer
 * from STEP Tools, Inc. (www.steptools.com) 
 */

FILE_DESCRIPTION(
/* description */ ('QF80-000'),
/* implementation_level */ '2;1');

FILE_NAME(
/* name */ 'X:\\4001092c.stp',
/* time_stamp */ '2021-03-30T16:14:20-04:00',
/* author */ ('Gavin_L'),
/* organization */ (''),
/* preprocessor_version */ 'ST-DEVELOPER v18.1',
/* originating_system */ 'Autodesk Inventor 2021',
/* authorisation */ 'QF80 SS BLANK FLG');

FILE_SCHEMA (('AUTOMOTIVE_DESIGN { 1 0 10303 214 3 1 1 }'));
ENDSEC;

DATA;
#10=MECHANICAL_DESIGN_GEOMETRIC_PRESENTATION_REPRESENTATION('',(#13),#252);
#11=SHAPE_REPRESENTATION_RELATIONSHIP('SRR','None',#262,#12);
#12=ADVANCED_BREP_SHAPE_REPRESENTATION('',(#14),#251);
#13=STYLED_ITEM('',(#271),#14);
#14=MANIFOLD_SOLID_BREP('Solid1',#130);
#15=CONICAL_SURFACE('',#164,2.165,1.22173047639603);
#16=FACE_BOUND('',#34,.T.);
#17=FACE_BOUND('',#36,.T.);
#18=PLANE('',#156);
#19=PLANE('',#157);
#20=PLANE('',#163);
#21=PLANE('',#168);
#22=FACE_OUTER_BOUND('',#31,.T.);
#23=FACE_OUTER_BOUND('',#32,.T.);
#24=FACE_OUTER_BOUND('',#33,.T.);
#25=FACE_OUTER_BOUND('',#35,.T.);
#26=FACE_OUTER_BOUND('',#37,.T.);
#27=FACE_OUTER_BOUND('',#38,.T.);
#28=FACE_OUTER_BOUND('',#39,.T.);
#29=FACE_OUTER_BOUND('',#40,.T.);
#30=FACE_OUTER_BOUND('',#41,.T.);
#31=EDGE_LOOP('',(#87,#88,#89,#90));
#32=EDGE_LOOP('',(#91,#92,#93,#94));
#33=EDGE_LOOP('',(#95));
#34=EDGE_LOOP('',(#96));
#35=EDGE_LOOP('',(#97));
#36=EDGE_LOOP('',(#98));
#37=EDGE_LOOP('',(#99,#100,#101,#102,#103));
#38=EDGE_LOOP('',(#104));
#39=EDGE_LOOP('',(#105,#106,#107,#108,#109,#110));
#40=EDGE_LOOP('',(#111,#112,#113,#114,#115));
#41=EDGE_LOOP('',(#116));
#42=LINE('',#219,#47);
#43=LINE('',#225,#48);
#44=LINE('',#235,#49);
#45=LINE('',#242,#50);
#46=LINE('',#247,#51);
#47=VECTOR('',#175,1.388);
#48=VECTOR('',#182,1.638);
#49=VECTOR('',#195,1.75);
#50=VECTOR('',#204,2.165);
#51=VECTOR('',#211,2.165);
#52=CIRCLE('',#151,1.388);
#53=CIRCLE('',#152,1.388);
#54=CIRCLE('',#154,1.638);
#55=CIRCLE('',#155,1.638);
#56=CIRCLE('',#158,2.165);
#57=CIRCLE('',#160,1.75);
#58=CIRCLE('',#161,1.75);
#59=CIRCLE('',#162,1.75);
#60=CIRCLE('',#165,2.165);
#61=CIRCLE('',#166,2.165);
#62=VERTEX_POINT('',#216);
#63=VERTEX_POINT('',#218);
#64=VERTEX_POINT('',#222);
#65=VERTEX_POINT('',#224);
#66=VERTEX_POINT('',#229);
#67=VERTEX_POINT('',#232);
#68=VERTEX_POINT('',#234);
#69=VERTEX_POINT('',#236);
#70=VERTEX_POINT('',#241);
#71=VERTEX_POINT('',#243);
#72=EDGE_CURVE('',#62,#62,#52,.T.);
#73=EDGE_CURVE('',#62,#63,#42,.T.);
#74=EDGE_CURVE('',#63,#63,#53,.T.);
#75=EDGE_CURVE('',#64,#64,#54,.T.);
#76=EDGE_CURVE('',#64,#65,#43,.T.);
#77=EDGE_CURVE('',#65,#65,#55,.T.);
#78=EDGE_CURVE('',#66,#66,#56,.T.);
#79=EDGE_CURVE('',#67,#67,#57,.T.);
#80=EDGE_CURVE('',#67,#68,#44,.T.);
#81=EDGE_CURVE('',#69,#68,#58,.T.);
#82=EDGE_CURVE('',#68,#69,#59,.T.);
#83=EDGE_CURVE('',#69,#70,#45,.T.);
#84=EDGE_CURVE('',#71,#70,#60,.T.);
#85=EDGE_CURVE('',#70,#71,#61,.T.);
#86=EDGE_CURVE('',#71,#66,#46,.T.);
#87=ORIENTED_EDGE('',*,*,#72,.T.);
#88=ORIENTED_EDGE('',*,*,#73,.T.);
#89=ORIENTED_EDGE('',*,*,#74,.F.);
#90=ORIENTED_EDGE('',*,*,#73,.F.);
#91=ORIENTED_EDGE('',*,*,#75,.F.);
#92=ORIENTED_EDGE('',*,*,#76,.T.);
#93=ORIENTED_EDGE('',*,*,#77,.F.);
#94=ORIENTED_EDGE('',*,*,#76,.F.);
#95=ORIENTED_EDGE('',*,*,#77,.T.);
#96=ORIENTED_EDGE('',*,*,#72,.F.);
#97=ORIENTED_EDGE('',*,*,#78,.F.);
#98=ORIENTED_EDGE('',*,*,#75,.T.);
#99=ORIENTED_EDGE('',*,*,#79,.T.);
#100=ORIENTED_EDGE('',*,*,#80,.T.);
#101=ORIENTED_EDGE('',*,*,#81,.F.);
#102=ORIENTED_EDGE('',*,*,#82,.F.);
#103=ORIENTED_EDGE('',*,*,#80,.F.);
#104=ORIENTED_EDGE('',*,*,#79,.F.);
#105=ORIENTED_EDGE('',*,*,#82,.T.);
#106=ORIENTED_EDGE('',*,*,#83,.T.);
#107=ORIENTED_EDGE('',*,*,#84,.F.);
#108=ORIENTED_EDGE('',*,*,#85,.F.);
#109=ORIENTED_EDGE('',*,*,#83,.F.);
#110=ORIENTED_EDGE('',*,*,#81,.T.);
#111=ORIENTED_EDGE('',*,*,#84,.T.);
#112=ORIENTED_EDGE('',*,*,#85,.T.);
#113=ORIENTED_EDGE('',*,*,#86,.T.);
#114=ORIENTED_EDGE('',*,*,#78,.T.);
#115=ORIENTED_EDGE('',*,*,#86,.F.);
#116=ORIENTED_EDGE('',*,*,#74,.T.);
#117=CYLINDRICAL_SURFACE('',#150,1.388);
#118=CYLINDRICAL_SURFACE('',#153,1.638);
#119=CYLINDRICAL_SURFACE('',#159,1.75);
#120=CYLINDRICAL_SURFACE('',#167,2.165);
#121=ADVANCED_FACE('',(#22),#117,.T.);
#122=ADVANCED_FACE('',(#23),#118,.F.);
#123=ADVANCED_FACE('',(#24,#16),#18,.F.);
#124=ADVANCED_FACE('',(#25,#17),#19,.F.);
#125=ADVANCED_FACE('',(#26),#119,.T.);
#126=ADVANCED_FACE('',(#27),#20,.T.);
#127=ADVANCED_FACE('',(#28),#15,.T.);
#128=ADVANCED_FACE('',(#29),#120,.T.);
#129=ADVANCED_FACE('',(#30),#21,.F.);
#130=CLOSED_SHELL('',(#121,#122,#123,#124,#125,#126,#127,#128,#129));
#131=DERIVED_UNIT_ELEMENT(#133,1.);
#132=DERIVED_UNIT_ELEMENT(#256,3.);
#133=(
MASS_UNIT()
NAMED_UNIT(*)
SI_UNIT($,.GRAM.)
);
#134=DERIVED_UNIT((#131,#132));
#135=MEASURE_REPRESENTATION_ITEM('density measure',
POSITIVE_RATIO_MEASURE(8.03),#134);
#136=PROPERTY_DEFINITION_REPRESENTATION(#141,#138);
#137=PROPERTY_DEFINITION_REPRESENTATION(#142,#139);
#138=REPRESENTATION('material name',(#140),#251);
#139=REPRESENTATION('density',(#135),#251);
#140=DESCRIPTIVE_REPRESENTATION_ITEM('304L Stainless Steel',
'304L Stainless Steel');
#141=PROPERTY_DEFINITION('material property','material name',#264);
#142=PROPERTY_DEFINITION('material property','density of part',#264);
#143=DATE_TIME_ROLE('creation_date');
#144=APPLIED_DATE_AND_TIME_ASSIGNMENT(#145,#143,(#264));
#145=DATE_AND_TIME(#146,#147);
#146=CALENDAR_DATE(2003,23,5);
#147=LOCAL_TIME(0,0,0.,#148);
#148=COORDINATED_UNIVERSAL_TIME_OFFSET(0,0,.BEHIND.);
#149=AXIS2_PLACEMENT_3D('placement',#214,#169,#170);
#150=AXIS2_PLACEMENT_3D('',#215,#171,#172);
#151=AXIS2_PLACEMENT_3D('',#217,#173,#174);
#152=AXIS2_PLACEMENT_3D('',#220,#176,#177);
#153=AXIS2_PLACEMENT_3D('',#221,#178,#179);
#154=AXIS2_PLACEMENT_3D('',#223,#180,#181);
#155=AXIS2_PLACEMENT_3D('',#226,#183,#184);
#156=AXIS2_PLACEMENT_3D('',#227,#185,#186);
#157=AXIS2_PLACEMENT_3D('',#228,#187,#188);
#158=AXIS2_PLACEMENT_3D('',#230,#189,#190);
#159=AXIS2_PLACEMENT_3D('',#231,#191,#192);
#160=AXIS2_PLACEMENT_3D('',#233,#193,#194);
#161=AXIS2_PLACEMENT_3D('',#237,#196,#197);
#162=AXIS2_PLACEMENT_3D('',#238,#198,#199);
#163=AXIS2_PLACEMENT_3D('',#239,#200,#201);
#164=AXIS2_PLACEMENT_3D('',#240,#202,#203);
#165=AXIS2_PLACEMENT_3D('',#244,#205,#206);
#166=AXIS2_PLACEMENT_3D('',#245,#207,#208);
#167=AXIS2_PLACEMENT_3D('',#246,#209,#210);
#168=AXIS2_PLACEMENT_3D('',#248,#212,#213);
#169=DIRECTION('axis',(0.,0.,1.));
#170=DIRECTION('refdir',(1.,0.,0.));
#171=DIRECTION('center_axis',(0.,0.,-1.));
#172=DIRECTION('ref_axis',(-1.,0.,0.));
#173=DIRECTION('center_axis',(0.,0.,1.));
#174=DIRECTION('ref_axis',(-1.,0.,0.));
#175=DIRECTION('',(0.,0.,1.));
#176=DIRECTION('center_axis',(0.,0.,1.));
#177=DIRECTION('ref_axis',(-1.,0.,0.));
#178=DIRECTION('center_axis',(0.,0.,-1.));
#179=DIRECTION('ref_axis',(-1.,0.,0.));
#180=DIRECTION('center_axis',(0.,0.,-1.));
#181=DIRECTION('ref_axis',(-1.,0.,0.));
#182=DIRECTION('',(0.,0.,-1.));
#183=DIRECTION('center_axis',(0.,0.,1.));
#184=DIRECTION('ref_axis',(-1.,0.,0.));
#185=DIRECTION('center_axis',(0.,0.,-1.));
#186=DIRECTION('ref_axis',(-1.,0.,0.));
#187=DIRECTION('center_axis',(0.,0.,-1.));
#188=DIRECTION('ref_axis',(-1.,0.,0.));
#189=DIRECTION('center_axis',(0.,0.,-1.));
#190=DIRECTION('ref_axis',(-1.,0.,0.));
#191=DIRECTION('center_axis',(0.,0.,-1.));
#192=DIRECTION('ref_axis',(-1.,0.,0.));
#193=DIRECTION('center_axis',(0.,0.,1.));
#194=DIRECTION('ref_axis',(-1.,0.,0.));
#195=DIRECTION('',(0.,0.,1.));
#196=DIRECTION('center_axis',(0.,0.,1.));
#197=DIRECTION('ref_axis',(-1.,0.,0.));
#198=DIRECTION('center_axis',(0.,0.,1.));
#199=DIRECTION('ref_axis',(-1.,0.,0.));
#200=DIRECTION('center_axis',(0.,0.,-1.));
#201=DIRECTION('ref_axis',(-1.,0.,0.));
#202=DIRECTION('center_axis',(0.,0.,1.));
#203=DIRECTION('ref_axis',(1.,0.,0.));
#204=DIRECTION('',(-0.939692620785908,1.15079156022785E-16,0.342020143325669));
#205=DIRECTION('center_axis',(0.,0.,1.));
#206=DIRECTION('ref_axis',(-1.,0.,0.));
#207=DIRECTION('center_axis',(0.,0.,1.));
#208=DIRECTION('ref_axis',(-1.,0.,0.));
#209=DIRECTION('center_axis',(0.,0.,-1.));
#210=DIRECTION('ref_axis',(-1.,0.,0.));
#211=DIRECTION('',(0.,0.,1.));
#212=DIRECTION('center_axis',(0.,0.,-1.));
#213=DIRECTION('ref_axis',(-1.,0.,0.));
#214=CARTESIAN_POINT('',(0.,0.,0.));
#215=CARTESIAN_POINT('Origin',(0.,0.,0.));
#216=CARTESIAN_POINT('',(1.388,1.69975361910546E-16,-0.11));
#217=CARTESIAN_POINT('Origin',(0.,0.,-0.11));
#218=CARTESIAN_POINT('',(1.388,1.69975361910546E-16,0.));
#219=CARTESIAN_POINT('',(1.388,-1.69980975721653E-16,0.));
#220=CARTESIAN_POINT('Origin',(0.,0.,0.));
#221=CARTESIAN_POINT('Origin',(0.,0.,0.));
#222=CARTESIAN_POINT('',(1.638,2.00590520756105E-16,0.));
#223=CARTESIAN_POINT('Origin',(0.,0.,0.));
#224=CARTESIAN_POINT('',(1.638,2.00590520756105E-16,-0.11));
#225=CARTESIAN_POINT('',(1.638,-2.00597145700336E-16,0.));
#226=CARTESIAN_POINT('Origin',(0.,0.,-0.11));
#227=CARTESIAN_POINT('Origin',(0.,0.,-0.11));
#228=CARTESIAN_POINT('Origin',(0.,0.,0.));
#229=CARTESIAN_POINT('',(2.165,2.65127275602545E-16,0.));
#230=CARTESIAN_POINT('Origin',(0.,0.,0.));
#231=CARTESIAN_POINT('Origin',(0.,0.,0.));
#232=CARTESIAN_POINT('',(1.75,2.14306111918916E-16,-0.472));
#233=CARTESIAN_POINT('Origin',(0.,0.,-0.472));
#234=CARTESIAN_POINT('',(1.75,2.14306111918916E-16,-0.301047647220474));
#235=CARTESIAN_POINT('',(1.75,-2.14313189850787E-16,0.));
#236=CARTESIAN_POINT('',(-1.75,2.14313189850787E-16,-0.301047647220474));
#237=CARTESIAN_POINT('Origin',(0.,0.,-0.301047647220474));
#238=CARTESIAN_POINT('Origin',(0.,0.,-0.301047647220474));
#239=CARTESIAN_POINT('Origin',(0.,0.,-0.472));
#240=CARTESIAN_POINT('Origin',(0.,0.,-0.15));
#241=CARTESIAN_POINT('',(-2.165,2.65136032015402E-16,-0.15));
#242=CARTESIAN_POINT('',(-2.165,2.65136032015402E-16,-0.15));
#243=CARTESIAN_POINT('',(2.165,2.65127275602545E-16,-0.15));
#244=CARTESIAN_POINT('Origin',(0.,0.,-0.15));
#245=CARTESIAN_POINT('Origin',(0.,0.,-0.15));
#246=CARTESIAN_POINT('Origin',(0.,0.,0.));
#247=CARTESIAN_POINT('',(2.165,-2.65136032015402E-16,0.));
#248=CARTESIAN_POINT('Origin',(0.,0.,0.));
#249=UNCERTAINTY_MEASURE_WITH_UNIT(LENGTH_MEASURE(0.000393700787401575),
#254,'DISTANCE_ACCURACY_VALUE',
'Maximum model space distance between geometric entities at asserted c
onnectivities');
#250=UNCERTAINTY_MEASURE_WITH_UNIT(LENGTH_MEASURE(0.000393700787401575),
#254,'DISTANCE_ACCURACY_VALUE',
'Maximum model space distance between geometric entities at asserted c
onnectivities');
#251=(
GEOMETRIC_REPRESENTATION_CONTEXT(3)
GLOBAL_UNCERTAINTY_ASSIGNED_CONTEXT((#249))
GLOBAL_UNIT_ASSIGNED_CONTEXT((#254,#258,#259))
REPRESENTATION_CONTEXT('','3D')
);
#252=(
GEOMETRIC_REPRESENTATION_CONTEXT(3)
GLOBAL_UNCERTAINTY_ASSIGNED_CONTEXT((#250))
GLOBAL_UNIT_ASSIGNED_CONTEXT((#254,#258,#259))
REPRESENTATION_CONTEXT('','3D')
);
#253=DIMENSIONAL_EXPONENTS(1.,0.,0.,0.,0.,0.,0.);
#254=(
CONVERSION_BASED_UNIT('inch',#257)
LENGTH_UNIT()
NAMED_UNIT(#253)
);
#255=(
LENGTH_UNIT()
NAMED_UNIT(*)
SI_UNIT(.MILLI.,.METRE.)
);
#256=(
LENGTH_UNIT()
NAMED_UNIT(*)
SI_UNIT(.CENTI.,.METRE.)
);
#257=LENGTH_MEASURE_WITH_UNIT(LENGTH_MEASURE(25.4),#255);
#258=(
NAMED_UNIT(*)
PLANE_ANGLE_UNIT()
SI_UNIT($,.RADIAN.)
);
#259=(
NAMED_UNIT(*)
SI_UNIT($,.STERADIAN.)
SOLID_ANGLE_UNIT()
);
#260=SHAPE_DEFINITION_REPRESENTATION(#261,#262);
#261=PRODUCT_DEFINITION_SHAPE('',$,#264);
#262=SHAPE_REPRESENTATION('',(#149),#251);
#263=PRODUCT_DEFINITION_CONTEXT('part definition',#268,'design');
#264=PRODUCT_DEFINITION('4001092','4001092',#265,#263);
#265=PRODUCT_DEFINITION_FORMATION('C',$,#270);
#266=PRODUCT_RELATED_PRODUCT_CATEGORY('4001092','4001092',(#270));
#267=APPLICATION_PROTOCOL_DEFINITION('international standard',
'automotive_design',2009,#268);
#268=APPLICATION_CONTEXT(
'Core Data for Automotive Mechanical Design Process');
#269=PRODUCT_CONTEXT('part definition',#268,'mechanical');
#270=PRODUCT('4001092','4001092','QF80-000',(#269));
#271=PRESENTATION_STYLE_ASSIGNMENT((#272));
#272=SURFACE_STYLE_USAGE(.BOTH.,#275);
#273=SURFACE_STYLE_RENDERING_WITH_PROPERTIES($,#279,(#274));
#274=SURFACE_STYLE_TRANSPARENT(0.);
#275=SURFACE_SIDE_STYLE('',(#276,#273));
#276=SURFACE_STYLE_FILL_AREA(#277);
#277=FILL_AREA_STYLE('',(#278));
#278=FILL_AREA_STYLE_COLOUR('',#279);
#279=COLOUR_RGB('',0.87843137254902,0.874509803921569,0.858823529411765);
ENDSEC;
END-ISO-10303-21;
