ISO-10303-21;
HEADER;
/* Generated by software containing ST-Developer
 * from STEP Tools, Inc. (www.steptools.com) 
 */

FILE_DESCRIPTION(
/* description */ ('QF200-800-SF'),
/* implementation_level */ '2;1');

FILE_NAME(
/* name */ 'G:\\drawings\\part models\\4001085a.stp',
/* time_stamp */ '2020-06-29T06:35:09-04:00',
/* author */ ('Dale_K'),
/* organization */ (''),
/* preprocessor_version */ 'ST-DEVELOPER v16.13',
/* originating_system */ 'Autodesk Inventor 2018',
/* authorisation */ 'QF200 8 IN BORE SS SOCKET WELD FLANGE');

FILE_SCHEMA (('AUTOMOTIVE_DESIGN { 1 0 10303 214 3 1 1 }'));
ENDSEC;

DATA;
#10=MECHANICAL_DESIGN_GEOMETRIC_PRESENTATION_REPRESENTATION('',(#13),#241);
#11=SHAPE_REPRESENTATION_RELATIONSHIP('SRR','None',#251,#12);
#12=ADVANCED_BREP_SHAPE_REPRESENTATION('',(#14),#240);
#13=STYLED_ITEM('',(#261),#14);
#14=MANIFOLD_SOLID_BREP('Solid1',#125);
#15=CONICAL_SURFACE('',#160,4.725,1.22173047639603);
#16=PLANE('',#148);
#17=PLANE('',#150);
#18=PLANE('',#159);
#19=PLANE('',#164);
#20=FACE_BOUND('',#41,.T.);
#21=FACE_BOUND('',#43,.T.);
#22=FACE_BOUND('',#45,.T.);
#23=FACE_BOUND('',#47,.T.);
#24=FACE_BOUND('',#49,.T.);
#25=FACE_BOUND('',#51,.T.);
#26=FACE_BOUND('',#53,.T.);
#27=FACE_BOUND('',#55,.T.);
#28=FACE_BOUND('',#57,.T.);
#29=FACE_BOUND('',#59,.T.);
#30=FACE_OUTER_BOUND('',#40,.T.);
#31=FACE_OUTER_BOUND('',#42,.T.);
#32=FACE_OUTER_BOUND('',#44,.T.);
#33=FACE_OUTER_BOUND('',#46,.T.);
#34=FACE_OUTER_BOUND('',#48,.T.);
#35=FACE_OUTER_BOUND('',#50,.T.);
#36=FACE_OUTER_BOUND('',#52,.T.);
#37=FACE_OUTER_BOUND('',#54,.T.);
#38=FACE_OUTER_BOUND('',#56,.T.);
#39=FACE_OUTER_BOUND('',#58,.T.);
#40=EDGE_LOOP('',(#90));
#41=EDGE_LOOP('',(#91));
#42=EDGE_LOOP('',(#92));
#43=EDGE_LOOP('',(#93));
#44=EDGE_LOOP('',(#94));
#45=EDGE_LOOP('',(#95));
#46=EDGE_LOOP('',(#96));
#47=EDGE_LOOP('',(#97));
#48=EDGE_LOOP('',(#98));
#49=EDGE_LOOP('',(#99));
#50=EDGE_LOOP('',(#100));
#51=EDGE_LOOP('',(#101));
#52=EDGE_LOOP('',(#102));
#53=EDGE_LOOP('',(#103));
#54=EDGE_LOOP('',(#104));
#55=EDGE_LOOP('',(#105));
#56=EDGE_LOOP('',(#106));
#57=EDGE_LOOP('',(#107));
#58=EDGE_LOOP('',(#108));
#59=EDGE_LOOP('',(#109));
#60=CIRCLE('',#146,4.01);
#61=CIRCLE('',#147,4.01);
#62=CIRCLE('',#149,3.88);
#63=CIRCLE('',#151,4.197);
#64=CIRCLE('',#152,3.88);
#65=CIRCLE('',#154,4.197);
#66=CIRCLE('',#157,4.25);
#67=CIRCLE('',#158,4.25);
#68=CIRCLE('',#161,4.725);
#69=CIRCLE('',#163,4.725);
#70=VERTEX_POINT('',#209);
#71=VERTEX_POINT('',#211);
#72=VERTEX_POINT('',#214);
#73=VERTEX_POINT('',#217);
#74=VERTEX_POINT('',#219);
#75=VERTEX_POINT('',#222);
#76=VERTEX_POINT('',#226);
#77=VERTEX_POINT('',#228);
#78=VERTEX_POINT('',#232);
#79=VERTEX_POINT('',#235);
#80=EDGE_CURVE('',#70,#70,#60,.T.);
#81=EDGE_CURVE('',#71,#71,#61,.T.);
#82=EDGE_CURVE('',#72,#72,#62,.T.);
#83=EDGE_CURVE('',#73,#73,#63,.T.);
#84=EDGE_CURVE('',#74,#74,#64,.T.);
#85=EDGE_CURVE('',#75,#75,#65,.T.);
#86=EDGE_CURVE('',#76,#76,#66,.T.);
#87=EDGE_CURVE('',#77,#77,#67,.T.);
#88=EDGE_CURVE('',#78,#78,#68,.T.);
#89=EDGE_CURVE('',#79,#79,#69,.T.);
#90=ORIENTED_EDGE('',*,*,#80,.F.);
#91=ORIENTED_EDGE('',*,*,#81,.F.);
#92=ORIENTED_EDGE('',*,*,#81,.T.);
#93=ORIENTED_EDGE('',*,*,#82,.F.);
#94=ORIENTED_EDGE('',*,*,#83,.T.);
#95=ORIENTED_EDGE('',*,*,#84,.F.);
#96=ORIENTED_EDGE('',*,*,#85,.F.);
#97=ORIENTED_EDGE('',*,*,#83,.F.);
#98=ORIENTED_EDGE('',*,*,#82,.T.);
#99=ORIENTED_EDGE('',*,*,#84,.T.);
#100=ORIENTED_EDGE('',*,*,#86,.T.);
#101=ORIENTED_EDGE('',*,*,#87,.F.);
#102=ORIENTED_EDGE('',*,*,#86,.F.);
#103=ORIENTED_EDGE('',*,*,#80,.T.);
#104=ORIENTED_EDGE('',*,*,#87,.T.);
#105=ORIENTED_EDGE('',*,*,#88,.F.);
#106=ORIENTED_EDGE('',*,*,#88,.T.);
#107=ORIENTED_EDGE('',*,*,#89,.T.);
#108=ORIENTED_EDGE('',*,*,#89,.F.);
#109=ORIENTED_EDGE('',*,*,#85,.T.);
#110=CYLINDRICAL_SURFACE('',#145,4.01);
#111=CYLINDRICAL_SURFACE('',#153,4.197);
#112=CYLINDRICAL_SURFACE('',#155,3.88);
#113=CYLINDRICAL_SURFACE('',#156,4.25);
#114=CYLINDRICAL_SURFACE('',#162,4.725);
#115=ADVANCED_FACE('',(#30,#20),#110,.F.);
#116=ADVANCED_FACE('',(#31,#21),#16,.T.);
#117=ADVANCED_FACE('',(#32,#22),#17,.T.);
#118=ADVANCED_FACE('',(#33,#23),#111,.F.);
#119=ADVANCED_FACE('',(#34,#24),#112,.F.);
#120=ADVANCED_FACE('',(#35,#25),#113,.T.);
#121=ADVANCED_FACE('',(#36,#26),#18,.T.);
#122=ADVANCED_FACE('',(#37,#27),#15,.T.);
#123=ADVANCED_FACE('',(#38,#28),#114,.T.);
#124=ADVANCED_FACE('',(#39,#29),#19,.F.);
#125=CLOSED_SHELL('',(#115,#116,#117,#118,#119,#120,#121,#122,#123,#124));
#126=DERIVED_UNIT_ELEMENT(#128,0.);
#127=DERIVED_UNIT_ELEMENT(#245,0.);
#128=(
MASS_UNIT()
NAMED_UNIT(*)
SI_UNIT($,.GRAM.)
);
#129=DERIVED_UNIT((#126,#127));
#130=MEASURE_REPRESENTATION_ITEM('density measure',
POSITIVE_RATIO_MEASURE(8.03),#129);
#131=PROPERTY_DEFINITION_REPRESENTATION(#136,#133);
#132=PROPERTY_DEFINITION_REPRESENTATION(#137,#134);
#133=REPRESENTATION('material name',(#135),#240);
#134=REPRESENTATION('density',(#130),#240);
#135=DESCRIPTIVE_REPRESENTATION_ITEM('304L Stainless Steel',
'304L Stainless Steel');
#136=PROPERTY_DEFINITION('material property','material name',#253);
#137=PROPERTY_DEFINITION('material property','density of part',#253);
#138=DATE_TIME_ROLE('creation_date');
#139=APPLIED_DATE_AND_TIME_ASSIGNMENT(#140,#138,(#253));
#140=DATE_AND_TIME(#141,#142);
#141=CALENDAR_DATE(2004,17,2);
#142=LOCAL_TIME(19,25,45.,#143);
#143=COORDINATED_UNIVERSAL_TIME_OFFSET(0,0,.BEHIND.);
#144=AXIS2_PLACEMENT_3D('placement',#207,#165,#166);
#145=AXIS2_PLACEMENT_3D('',#208,#167,#168);
#146=AXIS2_PLACEMENT_3D('',#210,#169,#170);
#147=AXIS2_PLACEMENT_3D('',#212,#171,#172);
#148=AXIS2_PLACEMENT_3D('',#213,#173,#174);
#149=AXIS2_PLACEMENT_3D('',#215,#175,#176);
#150=AXIS2_PLACEMENT_3D('',#216,#177,#178);
#151=AXIS2_PLACEMENT_3D('',#218,#179,#180);
#152=AXIS2_PLACEMENT_3D('',#220,#181,#182);
#153=AXIS2_PLACEMENT_3D('',#221,#183,#184);
#154=AXIS2_PLACEMENT_3D('',#223,#185,#186);
#155=AXIS2_PLACEMENT_3D('',#224,#187,#188);
#156=AXIS2_PLACEMENT_3D('',#225,#189,#190);
#157=AXIS2_PLACEMENT_3D('',#227,#191,#192);
#158=AXIS2_PLACEMENT_3D('',#229,#193,#194);
#159=AXIS2_PLACEMENT_3D('',#230,#195,#196);
#160=AXIS2_PLACEMENT_3D('',#231,#197,#198);
#161=AXIS2_PLACEMENT_3D('',#233,#199,#200);
#162=AXIS2_PLACEMENT_3D('',#234,#201,#202);
#163=AXIS2_PLACEMENT_3D('',#236,#203,#204);
#164=AXIS2_PLACEMENT_3D('',#237,#205,#206);
#165=DIRECTION('axis',(0.,0.,1.));
#166=DIRECTION('refdir',(1.,0.,0.));
#167=DIRECTION('center_axis',(0.,0.,-1.));
#168=DIRECTION('ref_axis',(-1.,0.,0.));
#169=DIRECTION('center_axis',(0.,0.,1.));
#170=DIRECTION('ref_axis',(-1.,0.,0.));
#171=DIRECTION('center_axis',(0.,0.,-1.));
#172=DIRECTION('ref_axis',(-1.,0.,0.));
#173=DIRECTION('center_axis',(0.,0.,-1.));
#174=DIRECTION('ref_axis',(-1.,0.,0.));
#175=DIRECTION('center_axis',(0.,0.,-1.));
#176=DIRECTION('ref_axis',(1.,0.,0.));
#177=DIRECTION('center_axis',(0.,0.,1.));
#178=DIRECTION('ref_axis',(1.,0.,0.));
#179=DIRECTION('center_axis',(0.,0.,1.));
#180=DIRECTION('ref_axis',(1.,0.,0.));
#181=DIRECTION('center_axis',(0.,0.,1.));
#182=DIRECTION('ref_axis',(1.,0.,0.));
#183=DIRECTION('center_axis',(0.,0.,1.));
#184=DIRECTION('ref_axis',(1.,0.,0.));
#185=DIRECTION('center_axis',(0.,0.,-1.));
#186=DIRECTION('ref_axis',(1.,0.,0.));
#187=DIRECTION('center_axis',(0.,0.,1.));
#188=DIRECTION('ref_axis',(1.,0.,0.));
#189=DIRECTION('center_axis',(0.,0.,-1.));
#190=DIRECTION('ref_axis',(-1.,0.,0.));
#191=DIRECTION('center_axis',(0.,0.,1.));
#192=DIRECTION('ref_axis',(-1.,0.,0.));
#193=DIRECTION('center_axis',(0.,0.,1.));
#194=DIRECTION('ref_axis',(-1.,0.,0.));
#195=DIRECTION('center_axis',(0.,0.,-1.));
#196=DIRECTION('ref_axis',(-1.,0.,0.));
#197=DIRECTION('center_axis',(0.,0.,1.));
#198=DIRECTION('ref_axis',(1.,0.,0.));
#199=DIRECTION('center_axis',(0.,0.,1.));
#200=DIRECTION('ref_axis',(-1.,0.,0.));
#201=DIRECTION('center_axis',(0.,0.,-1.));
#202=DIRECTION('ref_axis',(-1.,0.,0.));
#203=DIRECTION('center_axis',(0.,0.,-1.));
#204=DIRECTION('ref_axis',(-1.,0.,0.));
#205=DIRECTION('center_axis',(0.,0.,-1.));
#206=DIRECTION('ref_axis',(-1.,0.,0.));
#207=CARTESIAN_POINT('',(0.,0.,0.));
#208=CARTESIAN_POINT('Origin',(0.,0.,-0.361));
#209=CARTESIAN_POINT('',(-4.01,0.,-0.472));
#210=CARTESIAN_POINT('Origin',(0.,0.,-0.472));
#211=CARTESIAN_POINT('',(-4.01,0.,-0.25));
#212=CARTESIAN_POINT('Origin',(0.,0.,-0.25));
#213=CARTESIAN_POINT('Origin',(0.,0.,-0.25));
#214=CARTESIAN_POINT('',(-3.88,4.75147265283082E-16,-0.249999999999999));
#215=CARTESIAN_POINT('Origin',(0.,0.,-0.249999999999999));
#216=CARTESIAN_POINT('Origin',(0.,0.,-0.115));
#217=CARTESIAN_POINT('',(4.197,0.,-0.115));
#218=CARTESIAN_POINT('Origin',(0.,0.,-0.115));
#219=CARTESIAN_POINT('',(-3.88,-4.75147265283082E-16,-0.114999999999999));
#220=CARTESIAN_POINT('Origin',(0.,0.,-0.114999999999999));
#221=CARTESIAN_POINT('Origin',(0.,0.,-0.0575));
#222=CARTESIAN_POINT('',(4.197,0.,0.));
#223=CARTESIAN_POINT('Origin',(0.,0.,0.));
#224=CARTESIAN_POINT('Origin',(0.,0.,-13.3726505973947));
#225=CARTESIAN_POINT('Origin',(0.,0.,0.));
#226=CARTESIAN_POINT('',(4.25,5.2045770037451E-16,-0.472));
#227=CARTESIAN_POINT('Origin',(0.,0.,-0.472));
#228=CARTESIAN_POINT('',(4.25,5.2045770037451E-16,-0.322885861276446));
#229=CARTESIAN_POINT('Origin',(0.,0.,-0.322885861276446));
#230=CARTESIAN_POINT('Origin',(0.,0.,-0.472));
#231=CARTESIAN_POINT('Origin',(0.,0.,-0.15));
#232=CARTESIAN_POINT('',(4.725,5.78626502181073E-16,-0.15));
#233=CARTESIAN_POINT('Origin',(0.,0.,-0.15));
#234=CARTESIAN_POINT('Origin',(0.,0.,0.));
#235=CARTESIAN_POINT('',(4.725,5.78626502181073E-16,0.));
#236=CARTESIAN_POINT('Origin',(0.,0.,0.));
#237=CARTESIAN_POINT('Origin',(0.,0.,0.));
#238=UNCERTAINTY_MEASURE_WITH_UNIT(LENGTH_MEASURE(0.000393700787401575),
#243,'DISTANCE_ACCURACY_VALUE',
'Maximum model space distance between geometric entities at asserted c
onnectivities');
#239=UNCERTAINTY_MEASURE_WITH_UNIT(LENGTH_MEASURE(0.000393700787401575),
#243,'DISTANCE_ACCURACY_VALUE',
'Maximum model space distance between geometric entities at asserted c
onnectivities');
#240=(
GEOMETRIC_REPRESENTATION_CONTEXT(3)
GLOBAL_UNCERTAINTY_ASSIGNED_CONTEXT((#238))
GLOBAL_UNIT_ASSIGNED_CONTEXT((#243,#248,#247))
REPRESENTATION_CONTEXT('','3D')
);
#241=(
GEOMETRIC_REPRESENTATION_CONTEXT(3)
GLOBAL_UNCERTAINTY_ASSIGNED_CONTEXT((#239))
GLOBAL_UNIT_ASSIGNED_CONTEXT((#243,#248,#247))
REPRESENTATION_CONTEXT('','3D')
);
#242=DIMENSIONAL_EXPONENTS(1.,0.,0.,0.,0.,0.,0.);
#243=(
CONVERSION_BASED_UNIT('inch',#246)
LENGTH_UNIT()
NAMED_UNIT(#242)
);
#244=(
LENGTH_UNIT()
NAMED_UNIT(*)
SI_UNIT(.MILLI.,.METRE.)
);
#245=(
LENGTH_UNIT()
NAMED_UNIT(*)
SI_UNIT(.CENTI.,.METRE.)
);
#246=LENGTH_MEASURE_WITH_UNIT(LENGTH_MEASURE(25.4),#244);
#247=(
NAMED_UNIT(*)
SI_UNIT($,.STERADIAN.)
SOLID_ANGLE_UNIT()
);
#248=(
NAMED_UNIT(*)
PLANE_ANGLE_UNIT()
SI_UNIT($,.RADIAN.)
);
#249=SHAPE_DEFINITION_REPRESENTATION(#250,#251);
#250=PRODUCT_DEFINITION_SHAPE('',$,#253);
#251=SHAPE_REPRESENTATION('',(#144),#240);
#252=PRODUCT_DEFINITION_CONTEXT('part definition',#257,'design');
#253=PRODUCT_DEFINITION('4001085','4001085',#254,#252);
#254=PRODUCT_DEFINITION_FORMATION('A',$,#259);
#255=PRODUCT_RELATED_PRODUCT_CATEGORY('4001085','4001085',(#259));
#256=APPLICATION_PROTOCOL_DEFINITION('international standard',
'automotive_design',2009,#257);
#257=APPLICATION_CONTEXT(
'Core Data for Automotive Mechanical Design Process');
#258=PRODUCT_CONTEXT('part definition',#257,'mechanical');
#259=PRODUCT('4001085','4001085','QF200-800-SF',(#258));
#260=PRESENTATION_STYLE_ASSIGNMENT((#262));
#261=PRESENTATION_STYLE_ASSIGNMENT((#263));
#262=SURFACE_STYLE_USAGE(.BOTH.,#264);
#263=SURFACE_STYLE_USAGE(.BOTH.,#265);
#264=SURFACE_SIDE_STYLE('',(#266));
#265=SURFACE_SIDE_STYLE('',(#267));
#266=SURFACE_STYLE_FILL_AREA(#268);
#267=SURFACE_STYLE_FILL_AREA(#269);
#268=FILL_AREA_STYLE('',(#270));
#269=FILL_AREA_STYLE('',(#271));
#270=FILL_AREA_STYLE_COLOUR('',#272);
#271=FILL_AREA_STYLE_COLOUR('',#273);
#272=COLOUR_RGB('',0.87843137254902,0.874509803921569,0.858823529411765);
#273=COLOUR_RGB('',0.87843137254902,0.874509803921569,0.858823529411765);
ENDSEC;
END-ISO-10303-21;
