ISO-10303-21;
HEADER;
/* Generated by software containing ST-Developer
 * from STEP Tools, Inc. (www.steptools.com) 
 */

FILE_DESCRIPTION(
/* description */ ('QF160-000'),
/* implementation_level */ '2;1');

FILE_NAME(
/* name */ 'X:\\4001094c.stp',
/* time_stamp */ '2021-03-30T16:31:55-04:00',
/* author */ ('Gavin_L'),
/* organization */ (''),
/* preprocessor_version */ 'ST-DEVELOPER v18.1',
/* originating_system */ 'Autodesk Inventor 2021',
/* authorisation */ 'QF160 SS BLANK FLANGE');

FILE_SCHEMA (('AUTOMOTIVE_DESIGN { 1 0 10303 214 3 1 1 }'));
ENDSEC;

DATA;
#10=MECHANICAL_DESIGN_GEOMETRIC_PRESENTATION_REPRESENTATION('',(#13),#242);
#11=SHAPE_REPRESENTATION_RELATIONSHIP('SRR','None',#252,#12);
#12=ADVANCED_BREP_SHAPE_REPRESENTATION('',(#14),#241);
#13=STYLED_ITEM('',(#262),#14);
#14=MANIFOLD_SOLID_BREP('Solid1',#125);
#15=FACE_BOUND('',#38,.T.);
#16=FACE_BOUND('',#40,.T.);
#17=PLANE('',#155);
#18=PLANE('',#156);
#19=PLANE('',#160);
#20=PLANE('',#162);
#21=CYLINDRICAL_SURFACE('',#149,2.765);
#22=CYLINDRICAL_SURFACE('',#152,3.015);
#23=CYLINDRICAL_SURFACE('',#158,3.25);
#24=CYLINDRICAL_SURFACE('',#161,3.545);
#25=FACE_OUTER_BOUND('',#34,.T.);
#26=FACE_OUTER_BOUND('',#35,.T.);
#27=FACE_OUTER_BOUND('',#36,.T.);
#28=FACE_OUTER_BOUND('',#37,.T.);
#29=FACE_OUTER_BOUND('',#39,.T.);
#30=FACE_OUTER_BOUND('',#41,.T.);
#31=FACE_OUTER_BOUND('',#42,.T.);
#32=FACE_OUTER_BOUND('',#43,.T.);
#33=FACE_OUTER_BOUND('',#44,.T.);
#34=EDGE_LOOP('',(#87,#88,#89,#90,#91));
#35=EDGE_LOOP('',(#92,#93,#94,#95));
#36=EDGE_LOOP('',(#96,#97,#98,#99));
#37=EDGE_LOOP('',(#100));
#38=EDGE_LOOP('',(#101));
#39=EDGE_LOOP('',(#102));
#40=EDGE_LOOP('',(#103));
#41=EDGE_LOOP('',(#104,#105,#106,#107,#108));
#42=EDGE_LOOP('',(#109));
#43=EDGE_LOOP('',(#110,#111,#112,#113));
#44=EDGE_LOOP('',(#114));
#45=LINE('',#213,#50);
#46=LINE('',#219,#51);
#47=LINE('',#225,#52);
#48=LINE('',#234,#53);
#49=LINE('',#237,#54);
#50=VECTOR('',#171,3.3975);
#51=VECTOR('',#178,2.765);
#52=VECTOR('',#185,3.015);
#53=VECTOR('',#198,3.25);
#54=VECTOR('',#203,3.545);
#55=CIRCLE('',#146,3.25);
#56=CIRCLE('',#147,3.25);
#57=CIRCLE('',#148,3.545);
#58=CIRCLE('',#150,2.765);
#59=CIRCLE('',#151,2.765);
#60=CIRCLE('',#153,3.015);
#61=CIRCLE('',#154,3.015);
#62=CIRCLE('',#157,3.545);
#63=CIRCLE('',#159,3.25);
#64=VERTEX_POINT('',#208);
#65=VERTEX_POINT('',#209);
#66=VERTEX_POINT('',#212);
#67=VERTEX_POINT('',#216);
#68=VERTEX_POINT('',#218);
#69=VERTEX_POINT('',#222);
#70=VERTEX_POINT('',#224);
#71=VERTEX_POINT('',#229);
#72=VERTEX_POINT('',#232);
#73=EDGE_CURVE('',#64,#65,#55,.T.);
#74=EDGE_CURVE('',#65,#64,#56,.T.);
#75=EDGE_CURVE('',#65,#66,#45,.T.);
#76=EDGE_CURVE('',#66,#66,#57,.T.);
#77=EDGE_CURVE('',#67,#67,#58,.T.);
#78=EDGE_CURVE('',#67,#68,#46,.T.);
#79=EDGE_CURVE('',#68,#68,#59,.T.);
#80=EDGE_CURVE('',#69,#69,#60,.T.);
#81=EDGE_CURVE('',#69,#70,#47,.T.);
#82=EDGE_CURVE('',#70,#70,#61,.T.);
#83=EDGE_CURVE('',#71,#71,#62,.T.);
#84=EDGE_CURVE('',#72,#72,#63,.T.);
#85=EDGE_CURVE('',#72,#65,#48,.T.);
#86=EDGE_CURVE('',#71,#66,#49,.T.);
#87=ORIENTED_EDGE('',*,*,#73,.F.);
#88=ORIENTED_EDGE('',*,*,#74,.F.);
#89=ORIENTED_EDGE('',*,*,#75,.T.);
#90=ORIENTED_EDGE('',*,*,#76,.T.);
#91=ORIENTED_EDGE('',*,*,#75,.F.);
#92=ORIENTED_EDGE('',*,*,#77,.T.);
#93=ORIENTED_EDGE('',*,*,#78,.T.);
#94=ORIENTED_EDGE('',*,*,#79,.F.);
#95=ORIENTED_EDGE('',*,*,#78,.F.);
#96=ORIENTED_EDGE('',*,*,#80,.F.);
#97=ORIENTED_EDGE('',*,*,#81,.T.);
#98=ORIENTED_EDGE('',*,*,#82,.F.);
#99=ORIENTED_EDGE('',*,*,#81,.F.);
#100=ORIENTED_EDGE('',*,*,#82,.T.);
#101=ORIENTED_EDGE('',*,*,#77,.F.);
#102=ORIENTED_EDGE('',*,*,#83,.F.);
#103=ORIENTED_EDGE('',*,*,#80,.T.);
#104=ORIENTED_EDGE('',*,*,#84,.T.);
#105=ORIENTED_EDGE('',*,*,#85,.T.);
#106=ORIENTED_EDGE('',*,*,#74,.T.);
#107=ORIENTED_EDGE('',*,*,#73,.T.);
#108=ORIENTED_EDGE('',*,*,#85,.F.);
#109=ORIENTED_EDGE('',*,*,#84,.F.);
#110=ORIENTED_EDGE('',*,*,#83,.T.);
#111=ORIENTED_EDGE('',*,*,#86,.T.);
#112=ORIENTED_EDGE('',*,*,#76,.F.);
#113=ORIENTED_EDGE('',*,*,#86,.F.);
#114=ORIENTED_EDGE('',*,*,#79,.T.);
#115=CONICAL_SURFACE('',#145,3.3975,1.22173047639603);
#116=ADVANCED_FACE('',(#25),#115,.T.);
#117=ADVANCED_FACE('',(#26),#21,.T.);
#118=ADVANCED_FACE('',(#27),#22,.F.);
#119=ADVANCED_FACE('',(#28,#15),#17,.F.);
#120=ADVANCED_FACE('',(#29,#16),#18,.F.);
#121=ADVANCED_FACE('',(#30),#23,.T.);
#122=ADVANCED_FACE('',(#31),#19,.T.);
#123=ADVANCED_FACE('',(#32),#24,.T.);
#124=ADVANCED_FACE('',(#33),#20,.F.);
#125=CLOSED_SHELL('',(#116,#117,#118,#119,#120,#121,#122,#123,#124));
#126=DERIVED_UNIT_ELEMENT(#128,1.);
#127=DERIVED_UNIT_ELEMENT(#246,3.);
#128=(
MASS_UNIT()
NAMED_UNIT(*)
SI_UNIT($,.GRAM.)
);
#129=DERIVED_UNIT((#126,#127));
#130=MEASURE_REPRESENTATION_ITEM('density measure',
POSITIVE_RATIO_MEASURE(8.03),#129);
#131=PROPERTY_DEFINITION_REPRESENTATION(#136,#133);
#132=PROPERTY_DEFINITION_REPRESENTATION(#137,#134);
#133=REPRESENTATION('material name',(#135),#241);
#134=REPRESENTATION('density',(#130),#241);
#135=DESCRIPTIVE_REPRESENTATION_ITEM('304L Stainless Steel',
'304L Stainless Steel');
#136=PROPERTY_DEFINITION('material property','material name',#254);
#137=PROPERTY_DEFINITION('material property','density of part',#254);
#138=DATE_TIME_ROLE('creation_date');
#139=APPLIED_DATE_AND_TIME_ASSIGNMENT(#140,#138,(#254));
#140=DATE_AND_TIME(#141,#142);
#141=CALENDAR_DATE(2004,20,10);
#142=LOCAL_TIME(0,0,0.,#143);
#143=COORDINATED_UNIVERSAL_TIME_OFFSET(0,0,.BEHIND.);
#144=AXIS2_PLACEMENT_3D('placement',#206,#163,#164);
#145=AXIS2_PLACEMENT_3D('',#207,#165,#166);
#146=AXIS2_PLACEMENT_3D('',#210,#167,#168);
#147=AXIS2_PLACEMENT_3D('',#211,#169,#170);
#148=AXIS2_PLACEMENT_3D('',#214,#172,#173);
#149=AXIS2_PLACEMENT_3D('',#215,#174,#175);
#150=AXIS2_PLACEMENT_3D('',#217,#176,#177);
#151=AXIS2_PLACEMENT_3D('',#220,#179,#180);
#152=AXIS2_PLACEMENT_3D('',#221,#181,#182);
#153=AXIS2_PLACEMENT_3D('',#223,#183,#184);
#154=AXIS2_PLACEMENT_3D('',#226,#186,#187);
#155=AXIS2_PLACEMENT_3D('',#227,#188,#189);
#156=AXIS2_PLACEMENT_3D('',#228,#190,#191);
#157=AXIS2_PLACEMENT_3D('',#230,#192,#193);
#158=AXIS2_PLACEMENT_3D('',#231,#194,#195);
#159=AXIS2_PLACEMENT_3D('',#233,#196,#197);
#160=AXIS2_PLACEMENT_3D('',#235,#199,#200);
#161=AXIS2_PLACEMENT_3D('',#236,#201,#202);
#162=AXIS2_PLACEMENT_3D('',#238,#204,#205);
#163=DIRECTION('axis',(0.,0.,1.));
#164=DIRECTION('refdir',(1.,0.,0.));
#165=DIRECTION('center_axis',(0.,0.,1.));
#166=DIRECTION('ref_axis',(-1.,0.,-3.74315710670344E-19));
#167=DIRECTION('center_axis',(0.,0.,-1.));
#168=DIRECTION('ref_axis',(-1.,0.,0.));
#169=DIRECTION('center_axis',(0.,0.,-1.));
#170=DIRECTION('ref_axis',(-1.,0.,0.));
#171=DIRECTION('',(0.939692620785908,-1.15079156022785E-16,0.342020143325669));
#172=DIRECTION('center_axis',(0.,0.,-1.));
#173=DIRECTION('ref_axis',(-1.,0.,0.));
#174=DIRECTION('center_axis',(0.,0.,-1.));
#175=DIRECTION('ref_axis',(-1.,0.,0.));
#176=DIRECTION('center_axis',(0.,0.,1.));
#177=DIRECTION('ref_axis',(-1.,0.,0.));
#178=DIRECTION('',(0.,0.,1.));
#179=DIRECTION('center_axis',(0.,0.,1.));
#180=DIRECTION('ref_axis',(-1.,0.,0.));
#181=DIRECTION('center_axis',(0.,0.,-1.));
#182=DIRECTION('ref_axis',(-1.,0.,0.));
#183=DIRECTION('center_axis',(0.,0.,-1.));
#184=DIRECTION('ref_axis',(-1.,0.,0.));
#185=DIRECTION('',(0.,0.,-1.));
#186=DIRECTION('center_axis',(0.,0.,1.));
#187=DIRECTION('ref_axis',(-1.,0.,0.));
#188=DIRECTION('center_axis',(0.,0.,-1.));
#189=DIRECTION('ref_axis',(-1.,0.,0.));
#190=DIRECTION('center_axis',(0.,0.,-1.));
#191=DIRECTION('ref_axis',(-1.,0.,0.));
#192=DIRECTION('center_axis',(0.,0.,-1.));
#193=DIRECTION('ref_axis',(-1.,0.,0.));
#194=DIRECTION('center_axis',(0.,0.,-1.));
#195=DIRECTION('ref_axis',(-1.,0.,0.));
#196=DIRECTION('center_axis',(0.,0.,1.));
#197=DIRECTION('ref_axis',(-1.,0.,0.));
#198=DIRECTION('',(0.,0.,1.));
#199=DIRECTION('center_axis',(0.,0.,-1.));
#200=DIRECTION('ref_axis',(-1.,0.,0.));
#201=DIRECTION('center_axis',(0.,0.,1.));
#202=DIRECTION('ref_axis',(-1.,0.,0.));
#203=DIRECTION('',(0.,0.,-1.));
#204=DIRECTION('center_axis',(0.,0.,-1.));
#205=DIRECTION('ref_axis',(-1.,0.,0.));
#206=CARTESIAN_POINT('',(0.,0.,0.));
#207=CARTESIAN_POINT('Origin',(0.,0.,-0.0536856095542649));
#208=CARTESIAN_POINT('',(-3.25,0.,-0.10737121910853));
#209=CARTESIAN_POINT('',(3.25,-3.9801020972289E-16,-0.10737121910853));
#210=CARTESIAN_POINT('Origin',(0.,0.,-0.10737121910853));
#211=CARTESIAN_POINT('Origin',(0.,0.,-0.10737121910853));
#212=CARTESIAN_POINT('',(3.545,4.34122952430033E-16,0.));
#213=CARTESIAN_POINT('',(3.3975,-4.16073750010313E-16,-0.0536856095542649));
#214=CARTESIAN_POINT('Origin',(0.,0.,0.));
#215=CARTESIAN_POINT('Origin',(0.,0.,0.15));
#216=CARTESIAN_POINT('',(2.765,3.38603656831887E-16,0.04));
#217=CARTESIAN_POINT('Origin',(0.,0.,0.04));
#218=CARTESIAN_POINT('',(2.765,3.38603656831887E-16,0.15));
#219=CARTESIAN_POINT('',(2.765,-3.38614839964243E-16,0.15));
#220=CARTESIAN_POINT('Origin',(0.,0.,0.15));
#221=CARTESIAN_POINT('Origin',(0.,0.,0.15));
#222=CARTESIAN_POINT('',(3.015,3.69218815677447E-16,0.15));
#223=CARTESIAN_POINT('Origin',(0.,0.,0.15));
#224=CARTESIAN_POINT('',(3.015,3.69218815677447E-16,0.04));
#225=CARTESIAN_POINT('',(3.015,-3.69231009942927E-16,0.15));
#226=CARTESIAN_POINT('Origin',(0.,0.,0.04));
#227=CARTESIAN_POINT('Origin',(0.,0.,0.04));
#228=CARTESIAN_POINT('Origin',(0.,0.,0.15));
#229=CARTESIAN_POINT('',(3.545,4.34122952430033E-16,0.15));
#230=CARTESIAN_POINT('Origin',(0.,0.,0.15));
#231=CARTESIAN_POINT('Origin',(0.,0.,0.15));
#232=CARTESIAN_POINT('',(3.25,3.97997064992273E-16,-0.322));
#233=CARTESIAN_POINT('Origin',(0.,0.,-0.322));
#234=CARTESIAN_POINT('',(3.25,-3.9801020972289E-16,0.15));
#235=CARTESIAN_POINT('Origin',(0.,0.,-0.322));
#236=CARTESIAN_POINT('Origin',(0.,0.,0.));
#237=CARTESIAN_POINT('',(3.545,4.34137290297737E-16,0.));
#238=CARTESIAN_POINT('Origin',(0.,0.,0.15));
#239=UNCERTAINTY_MEASURE_WITH_UNIT(LENGTH_MEASURE(0.000393700787401575),
#244,'DISTANCE_ACCURACY_VALUE',
'Maximum model space distance between geometric entities at asserted c
onnectivities');
#240=UNCERTAINTY_MEASURE_WITH_UNIT(LENGTH_MEASURE(0.000393700787401575),
#244,'DISTANCE_ACCURACY_VALUE',
'Maximum model space distance between geometric entities at asserted c
onnectivities');
#241=(
GEOMETRIC_REPRESENTATION_CONTEXT(3)
GLOBAL_UNCERTAINTY_ASSIGNED_CONTEXT((#239))
GLOBAL_UNIT_ASSIGNED_CONTEXT((#244,#248,#249))
REPRESENTATION_CONTEXT('','3D')
);
#242=(
GEOMETRIC_REPRESENTATION_CONTEXT(3)
GLOBAL_UNCERTAINTY_ASSIGNED_CONTEXT((#240))
GLOBAL_UNIT_ASSIGNED_CONTEXT((#244,#248,#249))
REPRESENTATION_CONTEXT('','3D')
);
#243=DIMENSIONAL_EXPONENTS(1.,0.,0.,0.,0.,0.,0.);
#244=(
CONVERSION_BASED_UNIT('inch',#247)
LENGTH_UNIT()
NAMED_UNIT(#243)
);
#245=(
LENGTH_UNIT()
NAMED_UNIT(*)
SI_UNIT(.MILLI.,.METRE.)
);
#246=(
LENGTH_UNIT()
NAMED_UNIT(*)
SI_UNIT(.CENTI.,.METRE.)
);
#247=LENGTH_MEASURE_WITH_UNIT(LENGTH_MEASURE(25.4),#245);
#248=(
NAMED_UNIT(*)
PLANE_ANGLE_UNIT()
SI_UNIT($,.RADIAN.)
);
#249=(
NAMED_UNIT(*)
SI_UNIT($,.STERADIAN.)
SOLID_ANGLE_UNIT()
);
#250=SHAPE_DEFINITION_REPRESENTATION(#251,#252);
#251=PRODUCT_DEFINITION_SHAPE('',$,#254);
#252=SHAPE_REPRESENTATION('',(#144),#241);
#253=PRODUCT_DEFINITION_CONTEXT('part definition',#258,'design');
#254=PRODUCT_DEFINITION('4001094','4001094',#255,#253);
#255=PRODUCT_DEFINITION_FORMATION('C',$,#260);
#256=PRODUCT_RELATED_PRODUCT_CATEGORY('4001094','4001094',(#260));
#257=APPLICATION_PROTOCOL_DEFINITION('international standard',
'automotive_design',2009,#258);
#258=APPLICATION_CONTEXT(
'Core Data for Automotive Mechanical Design Process');
#259=PRODUCT_CONTEXT('part definition',#258,'mechanical');
#260=PRODUCT('4001094','4001094','QF160-000',(#259));
#261=PRESENTATION_STYLE_ASSIGNMENT((#263));
#262=PRESENTATION_STYLE_ASSIGNMENT((#264));
#263=SURFACE_STYLE_USAGE(.BOTH.,#269);
#264=SURFACE_STYLE_USAGE(.BOTH.,#270);
#265=SURFACE_STYLE_RENDERING_WITH_PROPERTIES($,#277,(#267));
#266=SURFACE_STYLE_RENDERING_WITH_PROPERTIES($,#278,(#268));
#267=SURFACE_STYLE_TRANSPARENT(0.);
#268=SURFACE_STYLE_TRANSPARENT(0.);
#269=SURFACE_SIDE_STYLE('',(#271,#265));
#270=SURFACE_SIDE_STYLE('',(#272,#266));
#271=SURFACE_STYLE_FILL_AREA(#273);
#272=SURFACE_STYLE_FILL_AREA(#274);
#273=FILL_AREA_STYLE('',(#275));
#274=FILL_AREA_STYLE('',(#276));
#275=FILL_AREA_STYLE_COLOUR('',#277);
#276=FILL_AREA_STYLE_COLOUR('',#278);
#277=COLOUR_RGB('',0.87843137254902,0.874509803921569,0.858823529411765);
#278=COLOUR_RGB('',0.87843137254902,0.874509803921569,0.858823529411765);
ENDSEC;
END-ISO-10303-21;
