ISO-10303-21;
HEADER;
/* Generated by software containing ST-Developer
 * from STEP Tools, Inc. (www.steptools.com) 
 */

FILE_DESCRIPTION(
/* description */ (''),
/* implementation_level */ '2;1');

FILE_NAME(
/* name */ 'FL-80LFB-W.stp',
/* time_stamp */ '2023-10-09T09:41:09+01:00',
/* author */ ('PaulJarvis'),
/* organization */ (''),
/* preprocessor_version */ 'ST-DEVELOPER v19.2',
/* originating_system */ 'Autodesk Inventor 2023',
/* authorisation */ '');

FILE_SCHEMA (('AUTOMOTIVE_DESIGN { 1 0 10303 214 3 1 1 }'));
ENDSEC;

DATA;
#10=MECHANICAL_DESIGN_GEOMETRIC_PRESENTATION_REPRESENTATION('',(#13),#571);
#11=SHAPE_REPRESENTATION_RELATIONSHIP('SRR','None',#578,#12);
#12=ADVANCED_BREP_SHAPE_REPRESENTATION('',(#14),#570);
#13=STYLED_ITEM('',(#587),#14);
#14=MANIFOLD_SOLID_BREP('Solid1',#318);
#15=FACE_BOUND('',#68,.T.);
#16=FACE_BOUND('',#69,.T.);
#17=FACE_BOUND('',#70,.T.);
#18=FACE_BOUND('',#71,.T.);
#19=FACE_BOUND('',#72,.T.);
#20=FACE_BOUND('',#73,.T.);
#21=FACE_BOUND('',#74,.T.);
#22=FACE_BOUND('',#75,.T.);
#23=FACE_BOUND('',#76,.T.);
#24=FACE_BOUND('',#78,.T.);
#25=FACE_BOUND('',#79,.T.);
#26=FACE_BOUND('',#80,.T.);
#27=FACE_BOUND('',#81,.T.);
#28=FACE_BOUND('',#82,.T.);
#29=FACE_BOUND('',#83,.T.);
#30=FACE_BOUND('',#84,.T.);
#31=FACE_BOUND('',#85,.T.);
#32=FACE_BOUND('',#86,.T.);
#33=FACE_BOUND('',#89,.T.);
#34=FACE_BOUND('',#92,.T.);
#35=PLANE('',#371);
#36=PLANE('',#373);
#37=PLANE('',#377);
#38=PLANE('',#381);
#39=CONICAL_SURFACE('',#365,72.25,0.785398163397446);
#40=FACE_OUTER_BOUND('',#57,.T.);
#41=FACE_OUTER_BOUND('',#58,.T.);
#42=FACE_OUTER_BOUND('',#59,.T.);
#43=FACE_OUTER_BOUND('',#60,.T.);
#44=FACE_OUTER_BOUND('',#61,.T.);
#45=FACE_OUTER_BOUND('',#62,.T.);
#46=FACE_OUTER_BOUND('',#63,.T.);
#47=FACE_OUTER_BOUND('',#64,.T.);
#48=FACE_OUTER_BOUND('',#65,.T.);
#49=FACE_OUTER_BOUND('',#66,.T.);
#50=FACE_OUTER_BOUND('',#67,.T.);
#51=FACE_OUTER_BOUND('',#77,.T.);
#52=FACE_OUTER_BOUND('',#87,.T.);
#53=FACE_OUTER_BOUND('',#88,.T.);
#54=FACE_OUTER_BOUND('',#90,.T.);
#55=FACE_OUTER_BOUND('',#91,.T.);
#56=FACE_OUTER_BOUND('',#93,.T.);
#57=EDGE_LOOP('',(#211,#212,#213,#214));
#58=EDGE_LOOP('',(#215,#216,#217,#218));
#59=EDGE_LOOP('',(#219,#220,#221,#222));
#60=EDGE_LOOP('',(#223,#224,#225,#226));
#61=EDGE_LOOP('',(#227,#228,#229,#230));
#62=EDGE_LOOP('',(#231,#232,#233,#234));
#63=EDGE_LOOP('',(#235,#236,#237,#238));
#64=EDGE_LOOP('',(#239,#240,#241,#242));
#65=EDGE_LOOP('',(#243,#244,#245,#246,#247));
#66=EDGE_LOOP('',(#248,#249,#250,#251,#252));
#67=EDGE_LOOP('',(#253));
#68=EDGE_LOOP('',(#254));
#69=EDGE_LOOP('',(#255));
#70=EDGE_LOOP('',(#256));
#71=EDGE_LOOP('',(#257));
#72=EDGE_LOOP('',(#258));
#73=EDGE_LOOP('',(#259));
#74=EDGE_LOOP('',(#260));
#75=EDGE_LOOP('',(#261));
#76=EDGE_LOOP('',(#262));
#77=EDGE_LOOP('',(#263));
#78=EDGE_LOOP('',(#264));
#79=EDGE_LOOP('',(#265));
#80=EDGE_LOOP('',(#266));
#81=EDGE_LOOP('',(#267));
#82=EDGE_LOOP('',(#268));
#83=EDGE_LOOP('',(#269));
#84=EDGE_LOOP('',(#270));
#85=EDGE_LOOP('',(#271));
#86=EDGE_LOOP('',(#272));
#87=EDGE_LOOP('',(#273,#274,#275,#276));
#88=EDGE_LOOP('',(#277));
#89=EDGE_LOOP('',(#278));
#90=EDGE_LOOP('',(#279,#280,#281,#282));
#91=EDGE_LOOP('',(#283));
#92=EDGE_LOOP('',(#284));
#93=EDGE_LOOP('',(#285,#286,#287,#288));
#94=LINE('',#490,#107);
#95=LINE('',#496,#108);
#96=LINE('',#502,#109);
#97=LINE('',#508,#110);
#98=LINE('',#514,#111);
#99=LINE('',#520,#112);
#100=LINE('',#526,#113);
#101=LINE('',#532,#114);
#102=LINE('',#540,#115);
#103=LINE('',#545,#116);
#104=LINE('',#554,#117);
#105=LINE('',#561,#118);
#106=LINE('',#567,#119);
#107=VECTOR('',#390,4.5);
#108=VECTOR('',#397,4.5);
#109=VECTOR('',#404,4.5);
#110=VECTOR('',#411,4.5);
#111=VECTOR('',#418,4.5);
#112=VECTOR('',#425,4.5);
#113=VECTOR('',#432,4.5);
#114=VECTOR('',#439,4.5);
#115=VECTOR('',#448,72.25);
#116=VECTOR('',#455,72.5);
#117=VECTOR('',#466,38.4);
#118=VECTOR('',#475,36.6);
#119=VECTOR('',#484,41.5);
#120=CIRCLE('',#342,4.5);
#121=CIRCLE('',#343,4.5);
#122=CIRCLE('',#345,4.5);
#123=CIRCLE('',#346,4.5);
#124=CIRCLE('',#348,4.5);
#125=CIRCLE('',#349,4.5);
#126=CIRCLE('',#351,4.5);
#127=CIRCLE('',#352,4.5);
#128=CIRCLE('',#354,4.5);
#129=CIRCLE('',#355,4.5);
#130=CIRCLE('',#357,4.5);
#131=CIRCLE('',#358,4.5);
#132=CIRCLE('',#360,4.5);
#133=CIRCLE('',#361,4.5);
#134=CIRCLE('',#363,4.5);
#135=CIRCLE('',#364,4.5);
#136=CIRCLE('',#366,72.5);
#137=CIRCLE('',#367,72.5);
#138=CIRCLE('',#368,72.);
#139=CIRCLE('',#370,72.5);
#140=CIRCLE('',#372,41.5);
#141=CIRCLE('',#374,38.4);
#142=CIRCLE('',#376,38.4);
#143=CIRCLE('',#378,36.6);
#144=CIRCLE('',#380,36.6);
#145=CIRCLE('',#382,41.5);
#146=VERTEX_POINT('',#487);
#147=VERTEX_POINT('',#489);
#148=VERTEX_POINT('',#493);
#149=VERTEX_POINT('',#495);
#150=VERTEX_POINT('',#499);
#151=VERTEX_POINT('',#501);
#152=VERTEX_POINT('',#505);
#153=VERTEX_POINT('',#507);
#154=VERTEX_POINT('',#511);
#155=VERTEX_POINT('',#513);
#156=VERTEX_POINT('',#517);
#157=VERTEX_POINT('',#519);
#158=VERTEX_POINT('',#523);
#159=VERTEX_POINT('',#525);
#160=VERTEX_POINT('',#529);
#161=VERTEX_POINT('',#531);
#162=VERTEX_POINT('',#535);
#163=VERTEX_POINT('',#536);
#164=VERTEX_POINT('',#539);
#165=VERTEX_POINT('',#543);
#166=VERTEX_POINT('',#547);
#167=VERTEX_POINT('',#550);
#168=VERTEX_POINT('',#553);
#169=VERTEX_POINT('',#557);
#170=VERTEX_POINT('',#560);
#171=VERTEX_POINT('',#564);
#172=EDGE_CURVE('',#146,#146,#120,.T.);
#173=EDGE_CURVE('',#146,#147,#94,.T.);
#174=EDGE_CURVE('',#147,#147,#121,.T.);
#175=EDGE_CURVE('',#148,#148,#122,.T.);
#176=EDGE_CURVE('',#148,#149,#95,.T.);
#177=EDGE_CURVE('',#149,#149,#123,.T.);
#178=EDGE_CURVE('',#150,#150,#124,.T.);
#179=EDGE_CURVE('',#150,#151,#96,.T.);
#180=EDGE_CURVE('',#151,#151,#125,.T.);
#181=EDGE_CURVE('',#152,#152,#126,.T.);
#182=EDGE_CURVE('',#152,#153,#97,.T.);
#183=EDGE_CURVE('',#153,#153,#127,.T.);
#184=EDGE_CURVE('',#154,#154,#128,.T.);
#185=EDGE_CURVE('',#154,#155,#98,.T.);
#186=EDGE_CURVE('',#155,#155,#129,.T.);
#187=EDGE_CURVE('',#156,#156,#130,.T.);
#188=EDGE_CURVE('',#156,#157,#99,.T.);
#189=EDGE_CURVE('',#157,#157,#131,.T.);
#190=EDGE_CURVE('',#158,#158,#132,.T.);
#191=EDGE_CURVE('',#158,#159,#100,.T.);
#192=EDGE_CURVE('',#159,#159,#133,.T.);
#193=EDGE_CURVE('',#160,#160,#134,.T.);
#194=EDGE_CURVE('',#160,#161,#101,.T.);
#195=EDGE_CURVE('',#161,#161,#135,.T.);
#196=EDGE_CURVE('',#162,#163,#136,.T.);
#197=EDGE_CURVE('',#163,#162,#137,.T.);
#198=EDGE_CURVE('',#162,#164,#102,.T.);
#199=EDGE_CURVE('',#164,#164,#138,.T.);
#200=EDGE_CURVE('',#165,#165,#139,.T.);
#201=EDGE_CURVE('',#165,#163,#103,.T.);
#202=EDGE_CURVE('',#166,#166,#140,.T.);
#203=EDGE_CURVE('',#167,#167,#141,.T.);
#204=EDGE_CURVE('',#167,#168,#104,.T.);
#205=EDGE_CURVE('',#168,#168,#142,.T.);
#206=EDGE_CURVE('',#169,#169,#143,.T.);
#207=EDGE_CURVE('',#169,#170,#105,.T.);
#208=EDGE_CURVE('',#170,#170,#144,.T.);
#209=EDGE_CURVE('',#171,#171,#145,.T.);
#210=EDGE_CURVE('',#171,#166,#106,.T.);
#211=ORIENTED_EDGE('',*,*,#172,.F.);
#212=ORIENTED_EDGE('',*,*,#173,.T.);
#213=ORIENTED_EDGE('',*,*,#174,.F.);
#214=ORIENTED_EDGE('',*,*,#173,.F.);
#215=ORIENTED_EDGE('',*,*,#175,.F.);
#216=ORIENTED_EDGE('',*,*,#176,.T.);
#217=ORIENTED_EDGE('',*,*,#177,.F.);
#218=ORIENTED_EDGE('',*,*,#176,.F.);
#219=ORIENTED_EDGE('',*,*,#178,.F.);
#220=ORIENTED_EDGE('',*,*,#179,.T.);
#221=ORIENTED_EDGE('',*,*,#180,.F.);
#222=ORIENTED_EDGE('',*,*,#179,.F.);
#223=ORIENTED_EDGE('',*,*,#181,.F.);
#224=ORIENTED_EDGE('',*,*,#182,.T.);
#225=ORIENTED_EDGE('',*,*,#183,.F.);
#226=ORIENTED_EDGE('',*,*,#182,.F.);
#227=ORIENTED_EDGE('',*,*,#184,.F.);
#228=ORIENTED_EDGE('',*,*,#185,.T.);
#229=ORIENTED_EDGE('',*,*,#186,.F.);
#230=ORIENTED_EDGE('',*,*,#185,.F.);
#231=ORIENTED_EDGE('',*,*,#187,.F.);
#232=ORIENTED_EDGE('',*,*,#188,.T.);
#233=ORIENTED_EDGE('',*,*,#189,.F.);
#234=ORIENTED_EDGE('',*,*,#188,.F.);
#235=ORIENTED_EDGE('',*,*,#190,.F.);
#236=ORIENTED_EDGE('',*,*,#191,.T.);
#237=ORIENTED_EDGE('',*,*,#192,.F.);
#238=ORIENTED_EDGE('',*,*,#191,.F.);
#239=ORIENTED_EDGE('',*,*,#193,.F.);
#240=ORIENTED_EDGE('',*,*,#194,.T.);
#241=ORIENTED_EDGE('',*,*,#195,.F.);
#242=ORIENTED_EDGE('',*,*,#194,.F.);
#243=ORIENTED_EDGE('',*,*,#196,.T.);
#244=ORIENTED_EDGE('',*,*,#197,.T.);
#245=ORIENTED_EDGE('',*,*,#198,.T.);
#246=ORIENTED_EDGE('',*,*,#199,.T.);
#247=ORIENTED_EDGE('',*,*,#198,.F.);
#248=ORIENTED_EDGE('',*,*,#200,.F.);
#249=ORIENTED_EDGE('',*,*,#201,.T.);
#250=ORIENTED_EDGE('',*,*,#196,.F.);
#251=ORIENTED_EDGE('',*,*,#197,.F.);
#252=ORIENTED_EDGE('',*,*,#201,.F.);
#253=ORIENTED_EDGE('',*,*,#199,.F.);
#254=ORIENTED_EDGE('',*,*,#172,.T.);
#255=ORIENTED_EDGE('',*,*,#175,.T.);
#256=ORIENTED_EDGE('',*,*,#178,.T.);
#257=ORIENTED_EDGE('',*,*,#181,.T.);
#258=ORIENTED_EDGE('',*,*,#184,.T.);
#259=ORIENTED_EDGE('',*,*,#187,.T.);
#260=ORIENTED_EDGE('',*,*,#190,.T.);
#261=ORIENTED_EDGE('',*,*,#193,.T.);
#262=ORIENTED_EDGE('',*,*,#202,.T.);
#263=ORIENTED_EDGE('',*,*,#200,.T.);
#264=ORIENTED_EDGE('',*,*,#174,.T.);
#265=ORIENTED_EDGE('',*,*,#177,.T.);
#266=ORIENTED_EDGE('',*,*,#180,.T.);
#267=ORIENTED_EDGE('',*,*,#183,.T.);
#268=ORIENTED_EDGE('',*,*,#186,.T.);
#269=ORIENTED_EDGE('',*,*,#189,.T.);
#270=ORIENTED_EDGE('',*,*,#192,.T.);
#271=ORIENTED_EDGE('',*,*,#195,.T.);
#272=ORIENTED_EDGE('',*,*,#203,.F.);
#273=ORIENTED_EDGE('',*,*,#203,.T.);
#274=ORIENTED_EDGE('',*,*,#204,.T.);
#275=ORIENTED_EDGE('',*,*,#205,.F.);
#276=ORIENTED_EDGE('',*,*,#204,.F.);
#277=ORIENTED_EDGE('',*,*,#205,.T.);
#278=ORIENTED_EDGE('',*,*,#206,.F.);
#279=ORIENTED_EDGE('',*,*,#206,.T.);
#280=ORIENTED_EDGE('',*,*,#207,.T.);
#281=ORIENTED_EDGE('',*,*,#208,.F.);
#282=ORIENTED_EDGE('',*,*,#207,.F.);
#283=ORIENTED_EDGE('',*,*,#209,.F.);
#284=ORIENTED_EDGE('',*,*,#208,.T.);
#285=ORIENTED_EDGE('',*,*,#209,.T.);
#286=ORIENTED_EDGE('',*,*,#210,.T.);
#287=ORIENTED_EDGE('',*,*,#202,.F.);
#288=ORIENTED_EDGE('',*,*,#210,.F.);
#289=CYLINDRICAL_SURFACE('',#341,4.5);
#290=CYLINDRICAL_SURFACE('',#344,4.5);
#291=CYLINDRICAL_SURFACE('',#347,4.5);
#292=CYLINDRICAL_SURFACE('',#350,4.5);
#293=CYLINDRICAL_SURFACE('',#353,4.5);
#294=CYLINDRICAL_SURFACE('',#356,4.5);
#295=CYLINDRICAL_SURFACE('',#359,4.5);
#296=CYLINDRICAL_SURFACE('',#362,4.5);
#297=CYLINDRICAL_SURFACE('',#369,72.5);
#298=CYLINDRICAL_SURFACE('',#375,38.4);
#299=CYLINDRICAL_SURFACE('',#379,36.6);
#300=CYLINDRICAL_SURFACE('',#383,41.5);
#301=ADVANCED_FACE('',(#40),#289,.F.);
#302=ADVANCED_FACE('',(#41),#290,.F.);
#303=ADVANCED_FACE('',(#42),#291,.F.);
#304=ADVANCED_FACE('',(#43),#292,.F.);
#305=ADVANCED_FACE('',(#44),#293,.F.);
#306=ADVANCED_FACE('',(#45),#294,.F.);
#307=ADVANCED_FACE('',(#46),#295,.F.);
#308=ADVANCED_FACE('',(#47),#296,.F.);
#309=ADVANCED_FACE('',(#48),#39,.T.);
#310=ADVANCED_FACE('',(#49),#297,.T.);
#311=ADVANCED_FACE('',(#50,#15,#16,#17,#18,#19,#20,#21,#22,#23),#35,.T.);
#312=ADVANCED_FACE('',(#51,#24,#25,#26,#27,#28,#29,#30,#31,#32),#36,.T.);
#313=ADVANCED_FACE('',(#52),#298,.F.);
#314=ADVANCED_FACE('',(#53,#33),#37,.T.);
#315=ADVANCED_FACE('',(#54),#299,.F.);
#316=ADVANCED_FACE('',(#55,#34),#38,.T.);
#317=ADVANCED_FACE('',(#56),#300,.F.);
#318=CLOSED_SHELL('',(#301,#302,#303,#304,#305,#306,#307,#308,#309,#310,
#311,#312,#313,#314,#315,#316,#317));
#319=DERIVED_UNIT_ELEMENT(#322,1.);
#320=DERIVED_UNIT_ELEMENT(#573,-3.);
#321=DIMENSIONAL_EXPONENTS(0.,1.,0.,0.,0.,0.,0.);
#322=(
CONVERSION_BASED_UNIT('gram',#324)
MASS_UNIT()
NAMED_UNIT(#321)
);
#323=(
MASS_UNIT()
NAMED_UNIT(*)
SI_UNIT(.KILO.,.GRAM.)
);
#324=MASS_MEASURE_WITH_UNIT(MASS_MEASURE(0.001),#323);
#325=DERIVED_UNIT((#319,#320));
#326=MEASURE_REPRESENTATION_ITEM('density measure',
POSITIVE_RATIO_MEASURE(8.),#325);
#327=PROPERTY_DEFINITION_REPRESENTATION(#332,#329);
#328=PROPERTY_DEFINITION_REPRESENTATION(#333,#330);
#329=REPRESENTATION('material name',(#331),#570);
#330=REPRESENTATION('density',(#326),#570);
#331=DESCRIPTIVE_REPRESENTATION_ITEM('Stainless Steel, Austenitic',
'Stainless Steel, Austenitic');
#332=PROPERTY_DEFINITION('material property','material name',#580);
#333=PROPERTY_DEFINITION('material property','density of part',#580);
#334=DATE_TIME_ROLE('creation_date');
#335=APPLIED_DATE_AND_TIME_ASSIGNMENT(#336,#334,(#580));
#336=DATE_AND_TIME(#337,#338);
#337=CALENDAR_DATE(2014,1,10);
#338=LOCAL_TIME(0,0,0.,#339);
#339=COORDINATED_UNIVERSAL_TIME_OFFSET(0,0,.BEHIND.);
#340=AXIS2_PLACEMENT_3D('',#485,#384,#385);
#341=AXIS2_PLACEMENT_3D('',#486,#386,#387);
#342=AXIS2_PLACEMENT_3D('',#488,#388,#389);
#343=AXIS2_PLACEMENT_3D('',#491,#391,#392);
#344=AXIS2_PLACEMENT_3D('',#492,#393,#394);
#345=AXIS2_PLACEMENT_3D('',#494,#395,#396);
#346=AXIS2_PLACEMENT_3D('',#497,#398,#399);
#347=AXIS2_PLACEMENT_3D('',#498,#400,#401);
#348=AXIS2_PLACEMENT_3D('',#500,#402,#403);
#349=AXIS2_PLACEMENT_3D('',#503,#405,#406);
#350=AXIS2_PLACEMENT_3D('',#504,#407,#408);
#351=AXIS2_PLACEMENT_3D('',#506,#409,#410);
#352=AXIS2_PLACEMENT_3D('',#509,#412,#413);
#353=AXIS2_PLACEMENT_3D('',#510,#414,#415);
#354=AXIS2_PLACEMENT_3D('',#512,#416,#417);
#355=AXIS2_PLACEMENT_3D('',#515,#419,#420);
#356=AXIS2_PLACEMENT_3D('',#516,#421,#422);
#357=AXIS2_PLACEMENT_3D('',#518,#423,#424);
#358=AXIS2_PLACEMENT_3D('',#521,#426,#427);
#359=AXIS2_PLACEMENT_3D('',#522,#428,#429);
#360=AXIS2_PLACEMENT_3D('',#524,#430,#431);
#361=AXIS2_PLACEMENT_3D('',#527,#433,#434);
#362=AXIS2_PLACEMENT_3D('',#528,#435,#436);
#363=AXIS2_PLACEMENT_3D('',#530,#437,#438);
#364=AXIS2_PLACEMENT_3D('',#533,#440,#441);
#365=AXIS2_PLACEMENT_3D('',#534,#442,#443);
#366=AXIS2_PLACEMENT_3D('',#537,#444,#445);
#367=AXIS2_PLACEMENT_3D('',#538,#446,#447);
#368=AXIS2_PLACEMENT_3D('',#541,#449,#450);
#369=AXIS2_PLACEMENT_3D('',#542,#451,#452);
#370=AXIS2_PLACEMENT_3D('',#544,#453,#454);
#371=AXIS2_PLACEMENT_3D('',#546,#456,#457);
#372=AXIS2_PLACEMENT_3D('',#548,#458,#459);
#373=AXIS2_PLACEMENT_3D('',#549,#460,#461);
#374=AXIS2_PLACEMENT_3D('',#551,#462,#463);
#375=AXIS2_PLACEMENT_3D('',#552,#464,#465);
#376=AXIS2_PLACEMENT_3D('',#555,#467,#468);
#377=AXIS2_PLACEMENT_3D('',#556,#469,#470);
#378=AXIS2_PLACEMENT_3D('',#558,#471,#472);
#379=AXIS2_PLACEMENT_3D('',#559,#473,#474);
#380=AXIS2_PLACEMENT_3D('',#562,#476,#477);
#381=AXIS2_PLACEMENT_3D('',#563,#478,#479);
#382=AXIS2_PLACEMENT_3D('',#565,#480,#481);
#383=AXIS2_PLACEMENT_3D('',#566,#482,#483);
#384=DIRECTION('axis',(0.,0.,1.));
#385=DIRECTION('refdir',(1.,0.,0.));
#386=DIRECTION('center_axis',(0.,-1.,0.));
#387=DIRECTION('ref_axis',(0.707106781186547,0.,0.707106781186548));
#388=DIRECTION('center_axis',(0.,1.,0.));
#389=DIRECTION('ref_axis',(0.707106781186547,0.,0.707106781186548));
#390=DIRECTION('',(0.,1.,0.));
#391=DIRECTION('center_axis',(0.,-1.,0.));
#392=DIRECTION('ref_axis',(0.707106781186547,0.,0.707106781186548));
#393=DIRECTION('center_axis',(0.,-1.,0.));
#394=DIRECTION('ref_axis',(-1.85037170770859E-16,0.,1.));
#395=DIRECTION('center_axis',(0.,1.,0.));
#396=DIRECTION('ref_axis',(-1.85037170770859E-16,0.,1.));
#397=DIRECTION('',(0.,1.,0.));
#398=DIRECTION('center_axis',(0.,-1.,0.));
#399=DIRECTION('ref_axis',(-1.85037170770859E-16,0.,1.));
#400=DIRECTION('center_axis',(0.,-1.,0.));
#401=DIRECTION('ref_axis',(-0.707106781186548,0.,0.707106781186547));
#402=DIRECTION('center_axis',(0.,1.,0.));
#403=DIRECTION('ref_axis',(-0.707106781186548,0.,0.707106781186547));
#404=DIRECTION('',(0.,1.,0.));
#405=DIRECTION('center_axis',(0.,-1.,0.));
#406=DIRECTION('ref_axis',(-0.707106781186548,0.,0.707106781186547));
#407=DIRECTION('center_axis',(0.,-1.,0.));
#408=DIRECTION('ref_axis',(-1.,0.,-1.85037170770859E-16));
#409=DIRECTION('center_axis',(0.,1.,0.));
#410=DIRECTION('ref_axis',(-1.,0.,-1.85037170770859E-16));
#411=DIRECTION('',(0.,1.,0.));
#412=DIRECTION('center_axis',(0.,-1.,0.));
#413=DIRECTION('ref_axis',(-1.,0.,-1.85037170770859E-16));
#414=DIRECTION('center_axis',(0.,-1.,0.));
#415=DIRECTION('ref_axis',(-0.707106781186547,0.,-0.707106781186548));
#416=DIRECTION('center_axis',(0.,1.,0.));
#417=DIRECTION('ref_axis',(-0.707106781186547,0.,-0.707106781186548));
#418=DIRECTION('',(0.,1.,0.));
#419=DIRECTION('center_axis',(0.,-1.,0.));
#420=DIRECTION('ref_axis',(-0.707106781186547,0.,-0.707106781186548));
#421=DIRECTION('center_axis',(0.,-1.,0.));
#422=DIRECTION('ref_axis',(0.,0.,-1.));
#423=DIRECTION('center_axis',(0.,1.,0.));
#424=DIRECTION('ref_axis',(0.,0.,-1.));
#425=DIRECTION('',(0.,1.,0.));
#426=DIRECTION('center_axis',(0.,-1.,0.));
#427=DIRECTION('ref_axis',(0.,0.,-1.));
#428=DIRECTION('center_axis',(0.,-1.,0.));
#429=DIRECTION('ref_axis',(0.707106781186548,0.,-0.707106781186548));
#430=DIRECTION('center_axis',(0.,1.,0.));
#431=DIRECTION('ref_axis',(0.707106781186548,0.,-0.707106781186548));
#432=DIRECTION('',(0.,1.,0.));
#433=DIRECTION('center_axis',(0.,-1.,0.));
#434=DIRECTION('ref_axis',(0.707106781186548,0.,-0.707106781186548));
#435=DIRECTION('center_axis',(0.,-1.,0.));
#436=DIRECTION('ref_axis',(1.,0.,0.));
#437=DIRECTION('center_axis',(0.,1.,0.));
#438=DIRECTION('ref_axis',(1.,0.,0.));
#439=DIRECTION('',(0.,1.,0.));
#440=DIRECTION('center_axis',(0.,-1.,0.));
#441=DIRECTION('ref_axis',(1.,0.,0.));
#442=DIRECTION('center_axis',(0.,1.,0.));
#443=DIRECTION('ref_axis',(1.,0.,0.));
#444=DIRECTION('center_axis',(0.,-1.,0.));
#445=DIRECTION('ref_axis',(1.,0.,0.));
#446=DIRECTION('center_axis',(0.,-1.,0.));
#447=DIRECTION('ref_axis',(1.,0.,0.));
#448=DIRECTION('',(0.707106781186546,-0.707106781186549,-8.65956056235491E-17));
#449=DIRECTION('center_axis',(0.,1.,0.));
#450=DIRECTION('ref_axis',(1.,0.,0.));
#451=DIRECTION('center_axis',(0.,1.,0.));
#452=DIRECTION('ref_axis',(-1.,0.,0.));
#453=DIRECTION('center_axis',(0.,1.,0.));
#454=DIRECTION('ref_axis',(1.,0.,0.));
#455=DIRECTION('',(0.,-1.,0.));
#456=DIRECTION('center_axis',(0.,-1.,0.));
#457=DIRECTION('ref_axis',(0.,0.,-1.));
#458=DIRECTION('center_axis',(0.,1.,0.));
#459=DIRECTION('ref_axis',(1.,0.,0.));
#460=DIRECTION('center_axis',(0.,1.,0.));
#461=DIRECTION('ref_axis',(0.,0.,1.));
#462=DIRECTION('center_axis',(0.,1.,0.));
#463=DIRECTION('ref_axis',(1.,0.,0.));
#464=DIRECTION('center_axis',(0.,1.,0.));
#465=DIRECTION('ref_axis',(-1.,0.,0.));
#466=DIRECTION('',(0.,-1.,0.));
#467=DIRECTION('center_axis',(0.,1.,0.));
#468=DIRECTION('ref_axis',(1.,0.,0.));
#469=DIRECTION('center_axis',(0.,1.,0.));
#470=DIRECTION('ref_axis',(0.,0.,1.));
#471=DIRECTION('center_axis',(0.,1.,0.));
#472=DIRECTION('ref_axis',(1.,0.,0.));
#473=DIRECTION('center_axis',(0.,1.,0.));
#474=DIRECTION('ref_axis',(-1.,0.,0.));
#475=DIRECTION('',(0.,-1.,0.));
#476=DIRECTION('center_axis',(0.,1.,0.));
#477=DIRECTION('ref_axis',(1.,0.,0.));
#478=DIRECTION('center_axis',(0.,-1.,0.));
#479=DIRECTION('ref_axis',(0.,0.,-1.));
#480=DIRECTION('center_axis',(0.,1.,0.));
#481=DIRECTION('ref_axis',(1.,0.,0.));
#482=DIRECTION('center_axis',(0.,1.,0.));
#483=DIRECTION('ref_axis',(-1.,0.,0.));
#484=DIRECTION('',(0.,-1.,0.));
#485=CARTESIAN_POINT('',(0.,0.,0.));
#486=CARTESIAN_POINT('Origin',(-44.1941738241592,205.411781551108,44.1941738241592));
#487=CARTESIAN_POINT('',(-47.3761543394987,0.,41.0121933088197));
#488=CARTESIAN_POINT('Origin',(-44.1941738241592,0.,44.1941738241592));
#489=CARTESIAN_POINT('',(-47.3761543394987,12.,41.0121933088197));
#490=CARTESIAN_POINT('',(-47.3761543394987,205.411781551108,41.0121933088197));
#491=CARTESIAN_POINT('Origin',(-44.1941738241592,12.,44.1941738241592));
#492=CARTESIAN_POINT('Origin',(-62.5,205.411781551108,-1.33226762955019E-14));
#493=CARTESIAN_POINT('',(-62.5,0.,-4.50000000000001));
#494=CARTESIAN_POINT('Origin',(-62.5,0.,-1.33226762955019E-14));
#495=CARTESIAN_POINT('',(-62.5,12.,-4.50000000000002));
#496=CARTESIAN_POINT('',(-62.5,205.411781551108,-4.50000000000001));
#497=CARTESIAN_POINT('Origin',(-62.5,12.,-1.33226762955019E-14));
#498=CARTESIAN_POINT('Origin',(-44.1941738241592,205.411781551108,-44.1941738241592));
#499=CARTESIAN_POINT('',(-41.0121933088197,0.,-47.3761543394987));
#500=CARTESIAN_POINT('Origin',(-44.1941738241592,0.,-44.1941738241592));
#501=CARTESIAN_POINT('',(-41.0121933088198,12.,-47.3761543394987));
#502=CARTESIAN_POINT('',(-41.0121933088197,205.411781551108,-47.3761543394987));
#503=CARTESIAN_POINT('Origin',(-44.1941738241592,12.,-44.1941738241592));
#504=CARTESIAN_POINT('Origin',(1.33226762955019E-14,205.411781551108,-62.5));
#505=CARTESIAN_POINT('',(4.50000000000001,0.,-62.5));
#506=CARTESIAN_POINT('Origin',(1.33226762955019E-14,0.,-62.5));
#507=CARTESIAN_POINT('',(4.50000000000002,12.,-62.5));
#508=CARTESIAN_POINT('',(4.50000000000001,205.411781551108,-62.5));
#509=CARTESIAN_POINT('Origin',(1.33226762955019E-14,12.,-62.5));
#510=CARTESIAN_POINT('Origin',(44.1941738241592,205.411781551108,-44.1941738241592));
#511=CARTESIAN_POINT('',(47.3761543394987,0.,-41.0121933088197));
#512=CARTESIAN_POINT('Origin',(44.1941738241592,0.,-44.1941738241592));
#513=CARTESIAN_POINT('',(47.3761543394987,12.,-41.0121933088198));
#514=CARTESIAN_POINT('',(47.3761543394987,205.411781551108,-41.0121933088197));
#515=CARTESIAN_POINT('Origin',(44.1941738241592,12.,-44.1941738241592));
#516=CARTESIAN_POINT('Origin',(62.5,205.411781551108,0.));
#517=CARTESIAN_POINT('',(62.5,0.,4.5));
#518=CARTESIAN_POINT('Origin',(62.5,0.,0.));
#519=CARTESIAN_POINT('',(62.5,12.,4.50000000000001));
#520=CARTESIAN_POINT('',(62.5,205.411781551108,4.5));
#521=CARTESIAN_POINT('Origin',(62.5,12.,0.));
#522=CARTESIAN_POINT('Origin',(44.1941738241592,205.411781551108,44.1941738241592));
#523=CARTESIAN_POINT('',(41.0121933088198,0.,47.3761543394987));
#524=CARTESIAN_POINT('Origin',(44.1941738241592,0.,44.1941738241592));
#525=CARTESIAN_POINT('',(41.0121933088198,12.,47.3761543394987));
#526=CARTESIAN_POINT('',(41.0121933088198,205.411781551108,47.3761543394987));
#527=CARTESIAN_POINT('Origin',(44.1941738241592,12.,44.1941738241592));
#528=CARTESIAN_POINT('Origin',(0.,205.411781551108,62.5));
#529=CARTESIAN_POINT('',(-4.5,0.,62.5));
#530=CARTESIAN_POINT('Origin',(0.,0.,62.5));
#531=CARTESIAN_POINT('',(-4.5,12.,62.5));
#532=CARTESIAN_POINT('',(-4.5,205.411781551108,62.5));
#533=CARTESIAN_POINT('Origin',(0.,12.,62.5));
#534=CARTESIAN_POINT('Origin',(0.,0.25,0.));
#535=CARTESIAN_POINT('',(-72.5,0.5,-8.87868929381831E-15));
#536=CARTESIAN_POINT('',(72.5,0.5,-8.87868929381831E-15));
#537=CARTESIAN_POINT('Origin',(0.,0.5,0.));
#538=CARTESIAN_POINT('Origin',(0.,0.5,0.));
#539=CARTESIAN_POINT('',(-72.,0.,8.81745695386094E-15));
#540=CARTESIAN_POINT('',(-72.25,0.25,8.84807312383963E-15));
#541=CARTESIAN_POINT('Origin',(0.,0.,0.));
#542=CARTESIAN_POINT('Origin',(0.,5.99999999999999,0.));
#543=CARTESIAN_POINT('',(72.5,12.,-8.87868929381831E-15));
#544=CARTESIAN_POINT('Origin',(0.,12.,0.));
#545=CARTESIAN_POINT('',(72.5,5.99999999999999,-8.87868929381831E-15));
#546=CARTESIAN_POINT('Origin',(-72.5,0.,0.));
#547=CARTESIAN_POINT('',(41.5,0.,-5.08228421646152E-15));
#548=CARTESIAN_POINT('Origin',(0.,0.,0.));
#549=CARTESIAN_POINT('Origin',(-38.4,12.,0.));
#550=CARTESIAN_POINT('',(38.4,12.,-4.70264370872584E-15));
#551=CARTESIAN_POINT('Origin',(0.,12.,0.));
#552=CARTESIAN_POINT('Origin',(0.,9.74999999999998,0.));
#553=CARTESIAN_POINT('',(38.4,7.49999999999998,-4.70264370872584E-15));
#554=CARTESIAN_POINT('',(38.4,9.74999999999998,-4.70264370872584E-15));
#555=CARTESIAN_POINT('Origin',(0.,7.49999999999998,0.));
#556=CARTESIAN_POINT('Origin',(-36.6,7.49999999999998,0.));
#557=CARTESIAN_POINT('',(36.6,7.49999999999998,-4.48220728487931E-15));
#558=CARTESIAN_POINT('Origin',(0.,7.49999999999998,0.));
#559=CARTESIAN_POINT('Origin',(0.,6.44999999999999,0.));
#560=CARTESIAN_POINT('',(36.6,5.4,-4.48220728487931E-15));
#561=CARTESIAN_POINT('',(36.6,6.44999999999999,-4.48220728487931E-15));
#562=CARTESIAN_POINT('Origin',(0.,5.4,0.));
#563=CARTESIAN_POINT('Origin',(-41.5,5.4,0.));
#564=CARTESIAN_POINT('',(41.5,5.4,-5.08228421646152E-15));
#565=CARTESIAN_POINT('Origin',(0.,5.4,0.));
#566=CARTESIAN_POINT('Origin',(0.,2.7,0.));
#567=CARTESIAN_POINT('',(41.5,2.7,-5.08228421646152E-15));
#568=UNCERTAINTY_MEASURE_WITH_UNIT(LENGTH_MEASURE(0.01),#572,
'DISTANCE_ACCURACY_VALUE',
'Maximum model space distance between geometric entities at asserted c
onnectivities');
#569=UNCERTAINTY_MEASURE_WITH_UNIT(LENGTH_MEASURE(0.01),#572,
'DISTANCE_ACCURACY_VALUE',
'Maximum model space distance between geometric entities at asserted c
onnectivities');
#570=(
GEOMETRIC_REPRESENTATION_CONTEXT(3)
GLOBAL_UNCERTAINTY_ASSIGNED_CONTEXT((#568))
GLOBAL_UNIT_ASSIGNED_CONTEXT((#572,#574,#575))
REPRESENTATION_CONTEXT('','3D')
);
#571=(
GEOMETRIC_REPRESENTATION_CONTEXT(3)
GLOBAL_UNCERTAINTY_ASSIGNED_CONTEXT((#569))
GLOBAL_UNIT_ASSIGNED_CONTEXT((#572,#574,#575))
REPRESENTATION_CONTEXT('','3D')
);
#572=(
LENGTH_UNIT()
NAMED_UNIT(*)
SI_UNIT(.MILLI.,.METRE.)
);
#573=(
LENGTH_UNIT()
NAMED_UNIT(*)
SI_UNIT(.CENTI.,.METRE.)
);
#574=(
NAMED_UNIT(*)
PLANE_ANGLE_UNIT()
SI_UNIT($,.RADIAN.)
);
#575=(
NAMED_UNIT(*)
SI_UNIT($,.STERADIAN.)
SOLID_ANGLE_UNIT()
);
#576=SHAPE_DEFINITION_REPRESENTATION(#577,#578);
#577=PRODUCT_DEFINITION_SHAPE('',$,#580);
#578=SHAPE_REPRESENTATION('',(#340),#570);
#579=PRODUCT_DEFINITION_CONTEXT('part definition',#584,'design');
#580=PRODUCT_DEFINITION('FL-80LFB-W','FL-80LFB-W',#581,#579);
#581=PRODUCT_DEFINITION_FORMATION('',$,#586);
#582=PRODUCT_RELATED_PRODUCT_CATEGORY('FL-80LFB-W','FL-80LFB-W',(#586));
#583=APPLICATION_PROTOCOL_DEFINITION('international standard',
'automotive_design',2009,#584);
#584=APPLICATION_CONTEXT(
'Core Data for Automotive Mechanical Design Process');
#585=PRODUCT_CONTEXT('part definition',#584,'mechanical');
#586=PRODUCT('FL-80LFB-W','FL-80LFB-W',$,(#585));
#587=PRESENTATION_STYLE_ASSIGNMENT((#588));
#588=SURFACE_STYLE_USAGE(.BOTH.,#591);
#589=SURFACE_STYLE_RENDERING_WITH_PROPERTIES($,#595,(#590));
#590=SURFACE_STYLE_TRANSPARENT(0.);
#591=SURFACE_SIDE_STYLE('',(#592,#589));
#592=SURFACE_STYLE_FILL_AREA(#593);
#593=FILL_AREA_STYLE('',(#594));
#594=FILL_AREA_STYLE_COLOUR('',#595);
#595=COLOUR_RGB('',0.745098039215686,0.737254901960784,0.729411764705882);
ENDSEC;
END-ISO-10303-21;
