ISO-10303-21;
HEADER;
/* Generated by software containing ST-Developer
 * from STEP Tools, Inc. (www.steptools.com) 
 */

FILE_DESCRIPTION(
/* description */ (''),
/* implementation_level */ '2;1');

FILE_NAME(
/* name */ 'FL-80LF-W.stp',
/* time_stamp */ '2023-10-09T09:40:48+01:00',
/* author */ ('PaulJarvis'),
/* organization */ (''),
/* preprocessor_version */ 'ST-DEVELOPER v19.2',
/* originating_system */ 'Autodesk Inventor 2023',
/* authorisation */ '');

FILE_SCHEMA (('AUTOMOTIVE_DESIGN { 1 0 10303 214 3 1 1 }'));
ENDSEC;

DATA;
#10=MECHANICAL_DESIGN_GEOMETRIC_PRESENTATION_REPRESENTATION('',(#13),#669);
#11=SHAPE_REPRESENTATION_RELATIONSHIP('SRR','None',#676,#12);
#12=ADVANCED_BREP_SHAPE_REPRESENTATION('',(#14),#668);
#13=STYLED_ITEM('',(#685),#14);
#14=MANIFOLD_SOLID_BREP('Solid1',#350);
#15=FACE_BOUND('',#68,.T.);
#16=FACE_BOUND('',#71,.T.);
#17=FACE_BOUND('',#76,.T.);
#18=FACE_BOUND('',#79,.T.);
#19=FACE_BOUND('',#84,.T.);
#20=FACE_BOUND('',#87,.T.);
#21=PLANE('',#397);
#22=PLANE('',#402);
#23=PLANE('',#414);
#24=PLANE('',#418);
#25=PLANE('',#425);
#26=PLANE('',#429);
#27=TOROIDAL_SURFACE('',#389,47.,0.5);
#28=TOROIDAL_SURFACE('',#399,46.,0.5);
#29=TOROIDAL_SURFACE('',#404,52.,0.5);
#30=TOROIDAL_SURFACE('',#411,53.,0.5);
#31=TOROIDAL_SURFACE('',#421,54.9196091714773,1.5);
#32=CYLINDRICAL_SURFACE('',#378,55.);
#33=CYLINDRICAL_SURFACE('',#386,55.);
#34=CYLINDRICAL_SURFACE('',#394,46.5);
#35=CYLINDRICAL_SURFACE('',#408,52.5);
#36=CYLINDRICAL_SURFACE('',#423,38.4);
#37=CYLINDRICAL_SURFACE('',#427,36.6);
#38=CYLINDRICAL_SURFACE('',#431,41.5);
#39=FACE_OUTER_BOUND('',#61,.T.);
#40=FACE_OUTER_BOUND('',#62,.T.);
#41=FACE_OUTER_BOUND('',#63,.T.);
#42=FACE_OUTER_BOUND('',#64,.T.);
#43=FACE_OUTER_BOUND('',#65,.T.);
#44=FACE_OUTER_BOUND('',#66,.T.);
#45=FACE_OUTER_BOUND('',#67,.T.);
#46=FACE_OUTER_BOUND('',#69,.T.);
#47=FACE_OUTER_BOUND('',#70,.T.);
#48=FACE_OUTER_BOUND('',#72,.T.);
#49=FACE_OUTER_BOUND('',#73,.T.);
#50=FACE_OUTER_BOUND('',#74,.T.);
#51=FACE_OUTER_BOUND('',#75,.T.);
#52=FACE_OUTER_BOUND('',#77,.T.);
#53=FACE_OUTER_BOUND('',#78,.T.);
#54=FACE_OUTER_BOUND('',#80,.T.);
#55=FACE_OUTER_BOUND('',#81,.T.);
#56=FACE_OUTER_BOUND('',#82,.T.);
#57=FACE_OUTER_BOUND('',#83,.T.);
#58=FACE_OUTER_BOUND('',#85,.T.);
#59=FACE_OUTER_BOUND('',#86,.T.);
#60=FACE_OUTER_BOUND('',#88,.T.);
#61=EDGE_LOOP('',(#228,#229,#230,#231,#232,#233));
#62=EDGE_LOOP('',(#234,#235,#236,#237,#238,#239));
#63=EDGE_LOOP('',(#240,#241,#242,#243,#244,#245));
#64=EDGE_LOOP('',(#246,#247,#248,#249,#250,#251));
#65=EDGE_LOOP('',(#252,#253,#254,#255,#256));
#66=EDGE_LOOP('',(#257,#258,#259,#260,#261,#262));
#67=EDGE_LOOP('',(#263));
#68=EDGE_LOOP('',(#264));
#69=EDGE_LOOP('',(#265,#266,#267,#268,#269));
#70=EDGE_LOOP('',(#270));
#71=EDGE_LOOP('',(#271));
#72=EDGE_LOOP('',(#272,#273,#274,#275,#276));
#73=EDGE_LOOP('',(#277,#278,#279,#280,#281,#282));
#74=EDGE_LOOP('',(#283,#284,#285,#286,#287));
#75=EDGE_LOOP('',(#288));
#76=EDGE_LOOP('',(#289));
#77=EDGE_LOOP('',(#290,#291,#292,#293,#294));
#78=EDGE_LOOP('',(#295));
#79=EDGE_LOOP('',(#296));
#80=EDGE_LOOP('',(#297,#298,#299,#300,#301));
#81=EDGE_LOOP('',(#302,#303,#304,#305,#306,#307));
#82=EDGE_LOOP('',(#308,#309,#310,#311));
#83=EDGE_LOOP('',(#312));
#84=EDGE_LOOP('',(#313));
#85=EDGE_LOOP('',(#314,#315,#316,#317));
#86=EDGE_LOOP('',(#318));
#87=EDGE_LOOP('',(#319));
#88=EDGE_LOOP('',(#320,#321,#322,#323));
#89=LINE('',#570,#100);
#90=LINE('',#576,#101);
#91=LINE('',#586,#102);
#92=LINE('',#595,#103);
#93=LINE('',#609,#104);
#94=LINE('',#630,#105);
#95=LINE('',#641,#106);
#96=LINE('',#647,#107);
#97=LINE('',#652,#108);
#98=LINE('',#659,#109);
#99=LINE('',#665,#110);
#100=VECTOR('',#440,54.8521512119584);
#101=VECTOR('',#447,55.);
#102=VECTOR('',#458,54.8521512119584);
#103=VECTOR('',#469,55.);
#104=VECTOR('',#486,46.5);
#105=VECTOR('',#513,52.5);
#106=VECTOR('',#528,54.625);
#107=VECTOR('',#537,54.625);
#108=VECTOR('',#544,38.4);
#109=VECTOR('',#553,36.6);
#110=VECTOR('',#562,41.5);
#111=CIRCLE('',#374,54.7043024239168);
#112=CIRCLE('',#375,54.7043024239168);
#113=CIRCLE('',#376,55.);
#114=CIRCLE('',#377,55.);
#115=CIRCLE('',#379,55.);
#116=CIRCLE('',#380,55.);
#117=CIRCLE('',#382,55.);
#118=CIRCLE('',#383,55.);
#119=CIRCLE('',#384,54.7043024239168);
#120=CIRCLE('',#385,54.7043024239168);
#121=CIRCLE('',#387,55.);
#122=CIRCLE('',#388,55.);
#123=CIRCLE('',#390,47.);
#124=CIRCLE('',#391,0.5);
#125=CIRCLE('',#392,46.5);
#126=CIRCLE('',#393,46.5);
#127=CIRCLE('',#395,46.5);
#128=CIRCLE('',#396,46.5);
#129=CIRCLE('',#398,52.);
#130=CIRCLE('',#400,46.);
#131=CIRCLE('',#401,0.5);
#132=CIRCLE('',#403,38.4);
#133=CIRCLE('',#405,52.5);
#134=CIRCLE('',#406,52.5);
#135=CIRCLE('',#407,0.5);
#136=CIRCLE('',#409,52.5);
#137=CIRCLE('',#410,52.5);
#138=CIRCLE('',#412,0.5);
#139=CIRCLE('',#413,53.);
#140=CIRCLE('',#415,54.25);
#141=CIRCLE('',#417,54.25);
#142=CIRCLE('',#419,41.5);
#143=CIRCLE('',#422,1.5);
#144=CIRCLE('',#424,38.4);
#145=CIRCLE('',#426,36.6);
#146=CIRCLE('',#428,36.6);
#147=CIRCLE('',#430,41.5);
#148=VERTEX_POINT('',#565);
#149=VERTEX_POINT('',#566);
#150=VERTEX_POINT('',#569);
#151=VERTEX_POINT('',#571);
#152=VERTEX_POINT('',#575);
#153=VERTEX_POINT('',#577);
#154=VERTEX_POINT('',#581);
#155=VERTEX_POINT('',#582);
#156=VERTEX_POINT('',#585);
#157=VERTEX_POINT('',#587);
#158=VERTEX_POINT('',#591);
#159=VERTEX_POINT('',#592);
#160=VERTEX_POINT('',#597);
#161=VERTEX_POINT('',#599);
#162=VERTEX_POINT('',#601);
#163=VERTEX_POINT('',#605);
#164=VERTEX_POINT('',#606);
#165=VERTEX_POINT('',#611);
#166=VERTEX_POINT('',#614);
#167=VERTEX_POINT('',#618);
#168=VERTEX_POINT('',#621);
#169=VERTEX_POINT('',#622);
#170=VERTEX_POINT('',#627);
#171=VERTEX_POINT('',#628);
#172=VERTEX_POINT('',#633);
#173=VERTEX_POINT('',#637);
#174=VERTEX_POINT('',#640);
#175=VERTEX_POINT('',#644);
#176=VERTEX_POINT('',#651);
#177=VERTEX_POINT('',#655);
#178=VERTEX_POINT('',#658);
#179=VERTEX_POINT('',#662);
#180=EDGE_CURVE('',#148,#149,#111,.T.);
#181=EDGE_CURVE('',#149,#148,#112,.T.);
#182=EDGE_CURVE('',#148,#150,#89,.T.);
#183=EDGE_CURVE('',#150,#151,#113,.T.);
#184=EDGE_CURVE('',#151,#150,#114,.T.);
#185=EDGE_CURVE('',#151,#152,#90,.T.);
#186=EDGE_CURVE('',#153,#152,#115,.T.);
#187=EDGE_CURVE('',#152,#153,#116,.T.);
#188=EDGE_CURVE('',#154,#155,#117,.T.);
#189=EDGE_CURVE('',#155,#154,#118,.T.);
#190=EDGE_CURVE('',#154,#156,#91,.T.);
#191=EDGE_CURVE('',#156,#157,#119,.T.);
#192=EDGE_CURVE('',#157,#156,#120,.T.);
#193=EDGE_CURVE('',#158,#159,#121,.T.);
#194=EDGE_CURVE('',#159,#158,#122,.T.);
#195=EDGE_CURVE('',#159,#155,#92,.T.);
#196=EDGE_CURVE('',#160,#160,#123,.T.);
#197=EDGE_CURVE('',#160,#161,#124,.T.);
#198=EDGE_CURVE('',#161,#162,#125,.T.);
#199=EDGE_CURVE('',#162,#161,#126,.T.);
#200=EDGE_CURVE('',#163,#164,#127,.T.);
#201=EDGE_CURVE('',#164,#163,#128,.T.);
#202=EDGE_CURVE('',#164,#162,#93,.T.);
#203=EDGE_CURVE('',#165,#165,#129,.T.);
#204=EDGE_CURVE('',#166,#166,#130,.T.);
#205=EDGE_CURVE('',#166,#163,#131,.T.);
#206=EDGE_CURVE('',#167,#167,#132,.T.);
#207=EDGE_CURVE('',#168,#169,#133,.T.);
#208=EDGE_CURVE('',#169,#168,#134,.T.);
#209=EDGE_CURVE('',#168,#165,#135,.T.);
#210=EDGE_CURVE('',#170,#171,#136,.T.);
#211=EDGE_CURVE('',#170,#169,#94,.T.);
#212=EDGE_CURVE('',#171,#170,#137,.T.);
#213=EDGE_CURVE('',#171,#172,#138,.T.);
#214=EDGE_CURVE('',#172,#172,#139,.T.);
#215=EDGE_CURVE('',#173,#173,#140,.T.);
#216=EDGE_CURVE('',#153,#174,#95,.T.);
#217=EDGE_CURVE('',#174,#174,#141,.T.);
#218=EDGE_CURVE('',#175,#175,#142,.T.);
#219=EDGE_CURVE('',#173,#158,#96,.T.);
#220=EDGE_CURVE('',#149,#157,#143,.T.);
#221=EDGE_CURVE('',#167,#176,#97,.T.);
#222=EDGE_CURVE('',#176,#176,#144,.T.);
#223=EDGE_CURVE('',#177,#177,#145,.T.);
#224=EDGE_CURVE('',#177,#178,#98,.T.);
#225=EDGE_CURVE('',#178,#178,#146,.T.);
#226=EDGE_CURVE('',#179,#179,#147,.T.);
#227=EDGE_CURVE('',#179,#175,#99,.T.);
#228=ORIENTED_EDGE('',*,*,#180,.T.);
#229=ORIENTED_EDGE('',*,*,#181,.T.);
#230=ORIENTED_EDGE('',*,*,#182,.T.);
#231=ORIENTED_EDGE('',*,*,#183,.T.);
#232=ORIENTED_EDGE('',*,*,#184,.T.);
#233=ORIENTED_EDGE('',*,*,#182,.F.);
#234=ORIENTED_EDGE('',*,*,#183,.F.);
#235=ORIENTED_EDGE('',*,*,#184,.F.);
#236=ORIENTED_EDGE('',*,*,#185,.T.);
#237=ORIENTED_EDGE('',*,*,#186,.F.);
#238=ORIENTED_EDGE('',*,*,#187,.F.);
#239=ORIENTED_EDGE('',*,*,#185,.F.);
#240=ORIENTED_EDGE('',*,*,#188,.T.);
#241=ORIENTED_EDGE('',*,*,#189,.T.);
#242=ORIENTED_EDGE('',*,*,#190,.T.);
#243=ORIENTED_EDGE('',*,*,#191,.T.);
#244=ORIENTED_EDGE('',*,*,#192,.T.);
#245=ORIENTED_EDGE('',*,*,#190,.F.);
#246=ORIENTED_EDGE('',*,*,#193,.F.);
#247=ORIENTED_EDGE('',*,*,#194,.F.);
#248=ORIENTED_EDGE('',*,*,#195,.T.);
#249=ORIENTED_EDGE('',*,*,#188,.F.);
#250=ORIENTED_EDGE('',*,*,#189,.F.);
#251=ORIENTED_EDGE('',*,*,#195,.F.);
#252=ORIENTED_EDGE('',*,*,#196,.T.);
#253=ORIENTED_EDGE('',*,*,#197,.T.);
#254=ORIENTED_EDGE('',*,*,#198,.T.);
#255=ORIENTED_EDGE('',*,*,#199,.T.);
#256=ORIENTED_EDGE('',*,*,#197,.F.);
#257=ORIENTED_EDGE('',*,*,#200,.F.);
#258=ORIENTED_EDGE('',*,*,#201,.F.);
#259=ORIENTED_EDGE('',*,*,#202,.T.);
#260=ORIENTED_EDGE('',*,*,#198,.F.);
#261=ORIENTED_EDGE('',*,*,#199,.F.);
#262=ORIENTED_EDGE('',*,*,#202,.F.);
#263=ORIENTED_EDGE('',*,*,#203,.F.);
#264=ORIENTED_EDGE('',*,*,#196,.F.);
#265=ORIENTED_EDGE('',*,*,#204,.T.);
#266=ORIENTED_EDGE('',*,*,#205,.T.);
#267=ORIENTED_EDGE('',*,*,#200,.T.);
#268=ORIENTED_EDGE('',*,*,#201,.T.);
#269=ORIENTED_EDGE('',*,*,#205,.F.);
#270=ORIENTED_EDGE('',*,*,#204,.F.);
#271=ORIENTED_EDGE('',*,*,#206,.F.);
#272=ORIENTED_EDGE('',*,*,#207,.T.);
#273=ORIENTED_EDGE('',*,*,#208,.T.);
#274=ORIENTED_EDGE('',*,*,#209,.T.);
#275=ORIENTED_EDGE('',*,*,#203,.T.);
#276=ORIENTED_EDGE('',*,*,#209,.F.);
#277=ORIENTED_EDGE('',*,*,#210,.F.);
#278=ORIENTED_EDGE('',*,*,#211,.T.);
#279=ORIENTED_EDGE('',*,*,#207,.F.);
#280=ORIENTED_EDGE('',*,*,#208,.F.);
#281=ORIENTED_EDGE('',*,*,#211,.F.);
#282=ORIENTED_EDGE('',*,*,#212,.F.);
#283=ORIENTED_EDGE('',*,*,#210,.T.);
#284=ORIENTED_EDGE('',*,*,#213,.T.);
#285=ORIENTED_EDGE('',*,*,#214,.T.);
#286=ORIENTED_EDGE('',*,*,#213,.F.);
#287=ORIENTED_EDGE('',*,*,#212,.T.);
#288=ORIENTED_EDGE('',*,*,#215,.F.);
#289=ORIENTED_EDGE('',*,*,#214,.F.);
#290=ORIENTED_EDGE('',*,*,#186,.T.);
#291=ORIENTED_EDGE('',*,*,#187,.T.);
#292=ORIENTED_EDGE('',*,*,#216,.T.);
#293=ORIENTED_EDGE('',*,*,#217,.T.);
#294=ORIENTED_EDGE('',*,*,#216,.F.);
#295=ORIENTED_EDGE('',*,*,#217,.F.);
#296=ORIENTED_EDGE('',*,*,#218,.T.);
#297=ORIENTED_EDGE('',*,*,#215,.T.);
#298=ORIENTED_EDGE('',*,*,#219,.T.);
#299=ORIENTED_EDGE('',*,*,#193,.T.);
#300=ORIENTED_EDGE('',*,*,#194,.T.);
#301=ORIENTED_EDGE('',*,*,#219,.F.);
#302=ORIENTED_EDGE('',*,*,#180,.F.);
#303=ORIENTED_EDGE('',*,*,#181,.F.);
#304=ORIENTED_EDGE('',*,*,#220,.T.);
#305=ORIENTED_EDGE('',*,*,#191,.F.);
#306=ORIENTED_EDGE('',*,*,#192,.F.);
#307=ORIENTED_EDGE('',*,*,#220,.F.);
#308=ORIENTED_EDGE('',*,*,#206,.T.);
#309=ORIENTED_EDGE('',*,*,#221,.T.);
#310=ORIENTED_EDGE('',*,*,#222,.F.);
#311=ORIENTED_EDGE('',*,*,#221,.F.);
#312=ORIENTED_EDGE('',*,*,#222,.T.);
#313=ORIENTED_EDGE('',*,*,#223,.F.);
#314=ORIENTED_EDGE('',*,*,#223,.T.);
#315=ORIENTED_EDGE('',*,*,#224,.T.);
#316=ORIENTED_EDGE('',*,*,#225,.F.);
#317=ORIENTED_EDGE('',*,*,#224,.F.);
#318=ORIENTED_EDGE('',*,*,#226,.F.);
#319=ORIENTED_EDGE('',*,*,#225,.T.);
#320=ORIENTED_EDGE('',*,*,#226,.T.);
#321=ORIENTED_EDGE('',*,*,#227,.T.);
#322=ORIENTED_EDGE('',*,*,#218,.F.);
#323=ORIENTED_EDGE('',*,*,#227,.F.);
#324=CONICAL_SURFACE('',#373,54.8521512119584,0.762794220727635);
#325=CONICAL_SURFACE('',#381,54.8521512119584,0.762794220727635);
#326=CONICAL_SURFACE('',#416,54.625,0.78539816339745);
#327=CONICAL_SURFACE('',#420,54.625,0.785398163397457);
#328=ADVANCED_FACE('',(#39),#324,.T.);
#329=ADVANCED_FACE('',(#40),#32,.T.);
#330=ADVANCED_FACE('',(#41),#325,.T.);
#331=ADVANCED_FACE('',(#42),#33,.T.);
#332=ADVANCED_FACE('',(#43),#27,.F.);
#333=ADVANCED_FACE('',(#44),#34,.T.);
#334=ADVANCED_FACE('',(#45,#15),#21,.T.);
#335=ADVANCED_FACE('',(#46),#28,.T.);
#336=ADVANCED_FACE('',(#47,#16),#22,.T.);
#337=ADVANCED_FACE('',(#48),#29,.F.);
#338=ADVANCED_FACE('',(#49),#35,.F.);
#339=ADVANCED_FACE('',(#50),#30,.T.);
#340=ADVANCED_FACE('',(#51,#17),#23,.T.);
#341=ADVANCED_FACE('',(#52),#326,.T.);
#342=ADVANCED_FACE('',(#53,#18),#24,.T.);
#343=ADVANCED_FACE('',(#54),#327,.T.);
#344=ADVANCED_FACE('',(#55),#31,.F.);
#345=ADVANCED_FACE('',(#56),#36,.F.);
#346=ADVANCED_FACE('',(#57,#19),#25,.T.);
#347=ADVANCED_FACE('',(#58),#37,.F.);
#348=ADVANCED_FACE('',(#59,#20),#26,.T.);
#349=ADVANCED_FACE('',(#60),#38,.F.);
#350=CLOSED_SHELL('',(#328,#329,#330,#331,#332,#333,#334,#335,#336,#337,
#338,#339,#340,#341,#342,#343,#344,#345,#346,#347,#348,#349));
#351=DERIVED_UNIT_ELEMENT(#354,1.);
#352=DERIVED_UNIT_ELEMENT(#671,-3.);
#353=DIMENSIONAL_EXPONENTS(0.,1.,0.,0.,0.,0.,0.);
#354=(
CONVERSION_BASED_UNIT('gram',#356)
MASS_UNIT()
NAMED_UNIT(#353)
);
#355=(
MASS_UNIT()
NAMED_UNIT(*)
SI_UNIT(.KILO.,.GRAM.)
);
#356=MASS_MEASURE_WITH_UNIT(MASS_MEASURE(0.001),#355);
#357=DERIVED_UNIT((#351,#352));
#358=MEASURE_REPRESENTATION_ITEM('density measure',
POSITIVE_RATIO_MEASURE(8.),#357);
#359=PROPERTY_DEFINITION_REPRESENTATION(#364,#361);
#360=PROPERTY_DEFINITION_REPRESENTATION(#365,#362);
#361=REPRESENTATION('material name',(#363),#668);
#362=REPRESENTATION('density',(#358),#668);
#363=DESCRIPTIVE_REPRESENTATION_ITEM('Stainless Steel, Austenitic',
'Stainless Steel, Austenitic');
#364=PROPERTY_DEFINITION('material property','material name',#678);
#365=PROPERTY_DEFINITION('material property','density of part',#678);
#366=DATE_TIME_ROLE('creation_date');
#367=APPLIED_DATE_AND_TIME_ASSIGNMENT(#368,#366,(#678));
#368=DATE_AND_TIME(#369,#370);
#369=CALENDAR_DATE(2014,1,10);
#370=LOCAL_TIME(0,0,0.,#371);
#371=COORDINATED_UNIVERSAL_TIME_OFFSET(0,0,.BEHIND.);
#372=AXIS2_PLACEMENT_3D('',#563,#432,#433);
#373=AXIS2_PLACEMENT_3D('',#564,#434,#435);
#374=AXIS2_PLACEMENT_3D('',#567,#436,#437);
#375=AXIS2_PLACEMENT_3D('',#568,#438,#439);
#376=AXIS2_PLACEMENT_3D('',#572,#441,#442);
#377=AXIS2_PLACEMENT_3D('',#573,#443,#444);
#378=AXIS2_PLACEMENT_3D('',#574,#445,#446);
#379=AXIS2_PLACEMENT_3D('',#578,#448,#449);
#380=AXIS2_PLACEMENT_3D('',#579,#450,#451);
#381=AXIS2_PLACEMENT_3D('',#580,#452,#453);
#382=AXIS2_PLACEMENT_3D('',#583,#454,#455);
#383=AXIS2_PLACEMENT_3D('',#584,#456,#457);
#384=AXIS2_PLACEMENT_3D('',#588,#459,#460);
#385=AXIS2_PLACEMENT_3D('',#589,#461,#462);
#386=AXIS2_PLACEMENT_3D('',#590,#463,#464);
#387=AXIS2_PLACEMENT_3D('',#593,#465,#466);
#388=AXIS2_PLACEMENT_3D('',#594,#467,#468);
#389=AXIS2_PLACEMENT_3D('',#596,#470,#471);
#390=AXIS2_PLACEMENT_3D('',#598,#472,#473);
#391=AXIS2_PLACEMENT_3D('',#600,#474,#475);
#392=AXIS2_PLACEMENT_3D('',#602,#476,#477);
#393=AXIS2_PLACEMENT_3D('',#603,#478,#479);
#394=AXIS2_PLACEMENT_3D('',#604,#480,#481);
#395=AXIS2_PLACEMENT_3D('',#607,#482,#483);
#396=AXIS2_PLACEMENT_3D('',#608,#484,#485);
#397=AXIS2_PLACEMENT_3D('',#610,#487,#488);
#398=AXIS2_PLACEMENT_3D('',#612,#489,#490);
#399=AXIS2_PLACEMENT_3D('',#613,#491,#492);
#400=AXIS2_PLACEMENT_3D('',#615,#493,#494);
#401=AXIS2_PLACEMENT_3D('',#616,#495,#496);
#402=AXIS2_PLACEMENT_3D('',#617,#497,#498);
#403=AXIS2_PLACEMENT_3D('',#619,#499,#500);
#404=AXIS2_PLACEMENT_3D('',#620,#501,#502);
#405=AXIS2_PLACEMENT_3D('',#623,#503,#504);
#406=AXIS2_PLACEMENT_3D('',#624,#505,#506);
#407=AXIS2_PLACEMENT_3D('',#625,#507,#508);
#408=AXIS2_PLACEMENT_3D('',#626,#509,#510);
#409=AXIS2_PLACEMENT_3D('',#629,#511,#512);
#410=AXIS2_PLACEMENT_3D('',#631,#514,#515);
#411=AXIS2_PLACEMENT_3D('',#632,#516,#517);
#412=AXIS2_PLACEMENT_3D('',#634,#518,#519);
#413=AXIS2_PLACEMENT_3D('',#635,#520,#521);
#414=AXIS2_PLACEMENT_3D('',#636,#522,#523);
#415=AXIS2_PLACEMENT_3D('',#638,#524,#525);
#416=AXIS2_PLACEMENT_3D('',#639,#526,#527);
#417=AXIS2_PLACEMENT_3D('',#642,#529,#530);
#418=AXIS2_PLACEMENT_3D('',#643,#531,#532);
#419=AXIS2_PLACEMENT_3D('',#645,#533,#534);
#420=AXIS2_PLACEMENT_3D('',#646,#535,#536);
#421=AXIS2_PLACEMENT_3D('',#648,#538,#539);
#422=AXIS2_PLACEMENT_3D('',#649,#540,#541);
#423=AXIS2_PLACEMENT_3D('',#650,#542,#543);
#424=AXIS2_PLACEMENT_3D('',#653,#545,#546);
#425=AXIS2_PLACEMENT_3D('',#654,#547,#548);
#426=AXIS2_PLACEMENT_3D('',#656,#549,#550);
#427=AXIS2_PLACEMENT_3D('',#657,#551,#552);
#428=AXIS2_PLACEMENT_3D('',#660,#554,#555);
#429=AXIS2_PLACEMENT_3D('',#661,#556,#557);
#430=AXIS2_PLACEMENT_3D('',#663,#558,#559);
#431=AXIS2_PLACEMENT_3D('',#664,#560,#561);
#432=DIRECTION('axis',(0.,0.,1.));
#433=DIRECTION('refdir',(1.,0.,0.));
#434=DIRECTION('center_axis',(0.,-1.,0.));
#435=DIRECTION('ref_axis',(1.,0.,0.));
#436=DIRECTION('center_axis',(0.,-1.,0.));
#437=DIRECTION('ref_axis',(1.,0.,0.));
#438=DIRECTION('center_axis',(0.,-1.,0.));
#439=DIRECTION('ref_axis',(1.,0.,0.));
#440=DIRECTION('',(-0.690944104846636,-0.722908185026066,8.46162486390166E-17));
#441=DIRECTION('center_axis',(0.,1.,0.));
#442=DIRECTION('ref_axis',(1.,0.,0.));
#443=DIRECTION('center_axis',(0.,1.,0.));
#444=DIRECTION('ref_axis',(1.,0.,0.));
#445=DIRECTION('center_axis',(0.,1.,0.));
#446=DIRECTION('ref_axis',(-1.,0.,0.));
#447=DIRECTION('',(0.,-1.,0.));
#448=DIRECTION('center_axis',(0.,-1.,0.));
#449=DIRECTION('ref_axis',(1.,0.,0.));
#450=DIRECTION('center_axis',(0.,-1.,0.));
#451=DIRECTION('ref_axis',(1.,0.,0.));
#452=DIRECTION('center_axis',(0.,1.,0.));
#453=DIRECTION('ref_axis',(1.,0.,0.));
#454=DIRECTION('center_axis',(0.,-1.,0.));
#455=DIRECTION('ref_axis',(1.,0.,0.));
#456=DIRECTION('center_axis',(0.,-1.,0.));
#457=DIRECTION('ref_axis',(1.,0.,0.));
#458=DIRECTION('',(0.690944104846636,-0.722908185026066,-8.46162486390166E-17));
#459=DIRECTION('center_axis',(0.,1.,0.));
#460=DIRECTION('ref_axis',(1.,0.,0.));
#461=DIRECTION('center_axis',(0.,1.,0.));
#462=DIRECTION('ref_axis',(1.,0.,0.));
#463=DIRECTION('center_axis',(0.,1.,0.));
#464=DIRECTION('ref_axis',(-1.,0.,0.));
#465=DIRECTION('center_axis',(0.,1.,0.));
#466=DIRECTION('ref_axis',(1.,0.,0.));
#467=DIRECTION('center_axis',(0.,1.,0.));
#468=DIRECTION('ref_axis',(1.,0.,0.));
#469=DIRECTION('',(0.,-1.,0.));
#470=DIRECTION('center_axis',(0.,1.,0.));
#471=DIRECTION('ref_axis',(0.,0.,1.));
#472=DIRECTION('center_axis',(0.,1.,0.));
#473=DIRECTION('ref_axis',(1.,0.,0.));
#474=DIRECTION('center_axis',(-1.,0.,1.22464679914735E-16));
#475=DIRECTION('ref_axis',(-1.22464679914735E-16,0.,-1.));
#476=DIRECTION('center_axis',(0.,-1.,0.));
#477=DIRECTION('ref_axis',(1.,0.,0.));
#478=DIRECTION('center_axis',(0.,-1.,0.));
#479=DIRECTION('ref_axis',(1.,0.,0.));
#480=DIRECTION('center_axis',(0.,1.,0.));
#481=DIRECTION('ref_axis',(-1.,0.,0.));
#482=DIRECTION('center_axis',(0.,1.,0.));
#483=DIRECTION('ref_axis',(1.,0.,0.));
#484=DIRECTION('center_axis',(0.,1.,0.));
#485=DIRECTION('ref_axis',(1.,0.,0.));
#486=DIRECTION('',(0.,-1.,0.));
#487=DIRECTION('center_axis',(0.,1.,0.));
#488=DIRECTION('ref_axis',(0.,0.,1.));
#489=DIRECTION('center_axis',(0.,-1.,0.));
#490=DIRECTION('ref_axis',(1.,0.,0.));
#491=DIRECTION('center_axis',(0.,1.,0.));
#492=DIRECTION('ref_axis',(0.,0.,1.));
#493=DIRECTION('center_axis',(0.,-1.,0.));
#494=DIRECTION('ref_axis',(1.,0.,0.));
#495=DIRECTION('center_axis',(-1.,0.,1.22464679914735E-16));
#496=DIRECTION('ref_axis',(-1.22464679914735E-16,0.,-1.));
#497=DIRECTION('center_axis',(0.,1.,0.));
#498=DIRECTION('ref_axis',(0.,0.,1.));
#499=DIRECTION('center_axis',(0.,1.,0.));
#500=DIRECTION('ref_axis',(1.,0.,0.));
#501=DIRECTION('center_axis',(0.,1.,0.));
#502=DIRECTION('ref_axis',(0.,0.,1.));
#503=DIRECTION('center_axis',(0.,1.,0.));
#504=DIRECTION('ref_axis',(1.,0.,0.));
#505=DIRECTION('center_axis',(0.,1.,0.));
#506=DIRECTION('ref_axis',(1.,0.,0.));
#507=DIRECTION('center_axis',(-1.,0.,1.22464679914735E-16));
#508=DIRECTION('ref_axis',(-1.22464679914735E-16,0.,-1.));
#509=DIRECTION('center_axis',(0.,1.,0.));
#510=DIRECTION('ref_axis',(-1.,0.,0.));
#511=DIRECTION('center_axis',(0.,-1.,0.));
#512=DIRECTION('ref_axis',(1.,0.,0.));
#513=DIRECTION('',(0.,-1.,0.));
#514=DIRECTION('center_axis',(0.,-1.,0.));
#515=DIRECTION('ref_axis',(1.,0.,0.));
#516=DIRECTION('center_axis',(0.,1.,0.));
#517=DIRECTION('ref_axis',(0.,0.,1.));
#518=DIRECTION('center_axis',(-1.,0.,1.22464679914735E-16));
#519=DIRECTION('ref_axis',(-1.22464679914735E-16,0.,-1.));
#520=DIRECTION('center_axis',(0.,1.,0.));
#521=DIRECTION('ref_axis',(1.,0.,0.));
#522=DIRECTION('center_axis',(0.,1.,0.));
#523=DIRECTION('ref_axis',(0.,0.,1.));
#524=DIRECTION('center_axis',(0.,-1.,0.));
#525=DIRECTION('ref_axis',(1.,0.,0.));
#526=DIRECTION('center_axis',(0.,1.,0.));
#527=DIRECTION('ref_axis',(1.,0.,0.));
#528=DIRECTION('',(0.707106781186548,-0.707106781186547,-8.65956056235494E-17));
#529=DIRECTION('center_axis',(0.,1.,0.));
#530=DIRECTION('ref_axis',(1.,0.,0.));
#531=DIRECTION('center_axis',(0.,-1.,0.));
#532=DIRECTION('ref_axis',(0.,0.,-1.));
#533=DIRECTION('center_axis',(0.,1.,0.));
#534=DIRECTION('ref_axis',(1.,0.,0.));
#535=DIRECTION('center_axis',(0.,-1.,0.));
#536=DIRECTION('ref_axis',(1.,0.,0.));
#537=DIRECTION('',(-0.707106781186554,-0.707106781186541,8.65956056235501E-17));
#538=DIRECTION('center_axis',(0.,1.,0.));
#539=DIRECTION('ref_axis',(0.,0.,1.));
#540=DIRECTION('center_axis',(-1.,0.,1.22464679914735E-16));
#541=DIRECTION('ref_axis',(-1.22464679914735E-16,0.,-1.));
#542=DIRECTION('center_axis',(0.,1.,0.));
#543=DIRECTION('ref_axis',(-1.,0.,0.));
#544=DIRECTION('',(0.,-1.,0.));
#545=DIRECTION('center_axis',(0.,1.,0.));
#546=DIRECTION('ref_axis',(1.,0.,0.));
#547=DIRECTION('center_axis',(0.,1.,0.));
#548=DIRECTION('ref_axis',(0.,0.,1.));
#549=DIRECTION('center_axis',(0.,1.,0.));
#550=DIRECTION('ref_axis',(1.,0.,0.));
#551=DIRECTION('center_axis',(0.,1.,0.));
#552=DIRECTION('ref_axis',(-1.,0.,0.));
#553=DIRECTION('',(0.,-1.,0.));
#554=DIRECTION('center_axis',(0.,1.,0.));
#555=DIRECTION('ref_axis',(1.,0.,0.));
#556=DIRECTION('center_axis',(0.,-1.,0.));
#557=DIRECTION('ref_axis',(0.,0.,-1.));
#558=DIRECTION('center_axis',(0.,1.,0.));
#559=DIRECTION('ref_axis',(1.,0.,0.));
#560=DIRECTION('center_axis',(0.,1.,0.));
#561=DIRECTION('ref_axis',(-1.,0.,0.));
#562=DIRECTION('',(0.,-1.,0.));
#563=CARTESIAN_POINT('',(0.,0.,0.));
#564=CARTESIAN_POINT('Origin',(0.,3.36084426577988,0.));
#565=CARTESIAN_POINT('',(-54.7043024239168,3.51553275399727,-6.69934488630385E-15));
#566=CARTESIAN_POINT('',(-6.69934488630385E-15,3.51553275399727,-54.7043024239168));
#567=CARTESIAN_POINT('Origin',(0.,3.51553275399727,0.));
#568=CARTESIAN_POINT('Origin',(0.,3.51553275399727,0.));
#569=CARTESIAN_POINT('',(-55.,3.20615577756249,6.73555739531044E-15));
#570=CARTESIAN_POINT('',(-54.8521512119584,3.36084426577988,6.71745114080715E-15));
#571=CARTESIAN_POINT('',(55.,3.20615577756249,-6.73555739531044E-15));
#572=CARTESIAN_POINT('Origin',(0.,3.20615577756249,0.));
#573=CARTESIAN_POINT('Origin',(0.,3.20615577756249,0.));
#574=CARTESIAN_POINT('Origin',(0.,1.75107788878125,0.));
#575=CARTESIAN_POINT('',(55.,0.75,-6.73555739531044E-15));
#576=CARTESIAN_POINT('',(55.,1.75107788878125,-6.73555739531044E-15));
#577=CARTESIAN_POINT('',(-55.,0.75,-6.73555739531044E-15));
#578=CARTESIAN_POINT('Origin',(0.,0.75,0.));
#579=CARTESIAN_POINT('Origin',(0.,0.75,0.));
#580=CARTESIAN_POINT('Origin',(0.,6.63915573422012,0.));
#581=CARTESIAN_POINT('',(-55.,6.79384422243751,-6.73555739531044E-15));
#582=CARTESIAN_POINT('',(55.,6.79384422243751,-6.73555739531044E-15));
#583=CARTESIAN_POINT('Origin',(0.,6.79384422243751,0.));
#584=CARTESIAN_POINT('Origin',(0.,6.79384422243751,0.));
#585=CARTESIAN_POINT('',(-54.7043024239168,6.48446724600274,6.69934488630385E-15));
#586=CARTESIAN_POINT('',(-54.8521512119584,6.63915573422012,6.71745114080715E-15));
#587=CARTESIAN_POINT('',(-6.69934488630385E-15,6.48446724600274,-54.7043024239168));
#588=CARTESIAN_POINT('Origin',(0.,6.48446724600274,0.));
#589=CARTESIAN_POINT('Origin',(0.,6.48446724600274,0.));
#590=CARTESIAN_POINT('Origin',(0.,9.24892211121876,0.));
#591=CARTESIAN_POINT('',(-55.,11.25,6.73555739531044E-15));
#592=CARTESIAN_POINT('',(55.,11.25,-6.73555739531044E-15));
#593=CARTESIAN_POINT('Origin',(0.,11.25,0.));
#594=CARTESIAN_POINT('Origin',(0.,11.25,0.));
#595=CARTESIAN_POINT('',(55.,9.24892211121876,-6.73555739531044E-15));
#596=CARTESIAN_POINT('Origin',(0.,10.5,0.));
#597=CARTESIAN_POINT('',(-5.75583995599256E-15,10.,-47.));
#598=CARTESIAN_POINT('Origin',(0.,9.99999999999999,0.));
#599=CARTESIAN_POINT('',(-5.69460761603519E-15,10.5,-46.5));
#600=CARTESIAN_POINT('Origin',(-5.75583995599256E-15,10.5,-47.));
#601=CARTESIAN_POINT('',(46.5,10.5,-5.69460761603519E-15));
#602=CARTESIAN_POINT('Origin',(0.,10.5,0.));
#603=CARTESIAN_POINT('Origin',(0.,10.5,0.));
#604=CARTESIAN_POINT('Origin',(0.,11.,0.));
#605=CARTESIAN_POINT('',(-5.69460761603519E-15,11.5,-46.5));
#606=CARTESIAN_POINT('',(46.5,11.5,-5.69460761603519E-15));
#607=CARTESIAN_POINT('Origin',(0.,11.5,0.));
#608=CARTESIAN_POINT('Origin',(0.,11.5,0.));
#609=CARTESIAN_POINT('',(46.5,11.,-5.69460761603519E-15));
#610=CARTESIAN_POINT('Origin',(-46.5,9.99999999999999,0.));
#611=CARTESIAN_POINT('',(-6.36816335556624E-15,10.,-52.));
#612=CARTESIAN_POINT('Origin',(0.,9.99999999999999,0.));
#613=CARTESIAN_POINT('Origin',(0.,11.5,0.));
#614=CARTESIAN_POINT('',(-5.63337527607782E-15,12.,-46.));
#615=CARTESIAN_POINT('Origin',(0.,12.,0.));
#616=CARTESIAN_POINT('Origin',(-5.63337527607782E-15,11.5,-46.));
#617=CARTESIAN_POINT('Origin',(-38.4,12.,0.));
#618=CARTESIAN_POINT('',(38.4,12.,-4.70264370872584E-15));
#619=CARTESIAN_POINT('Origin',(0.,12.,0.));
#620=CARTESIAN_POINT('Origin',(0.,10.5,0.));
#621=CARTESIAN_POINT('',(-6.4293956955236E-15,10.5,-52.5));
#622=CARTESIAN_POINT('',(52.5,10.5,-6.4293956955236E-15));
#623=CARTESIAN_POINT('Origin',(0.,10.5,0.));
#624=CARTESIAN_POINT('Origin',(0.,10.5,0.));
#625=CARTESIAN_POINT('Origin',(-6.36816335556624E-15,10.5,-52.));
#626=CARTESIAN_POINT('Origin',(0.,11.,0.));
#627=CARTESIAN_POINT('',(52.5,11.5,-6.4293956955236E-15));
#628=CARTESIAN_POINT('',(-6.4293956955236E-15,11.5,-52.5));
#629=CARTESIAN_POINT('Origin',(0.,11.5,0.));
#630=CARTESIAN_POINT('',(52.5,11.,-6.4293956955236E-15));
#631=CARTESIAN_POINT('Origin',(0.,11.5,0.));
#632=CARTESIAN_POINT('Origin',(0.,11.5,0.));
#633=CARTESIAN_POINT('',(-6.49062803548097E-15,12.,-53.));
#634=CARTESIAN_POINT('Origin',(-6.49062803548097E-15,11.5,-53.));
#635=CARTESIAN_POINT('Origin',(0.,12.,0.));
#636=CARTESIAN_POINT('Origin',(-52.5,12.,0.));
#637=CARTESIAN_POINT('',(-54.25,12.,-6.64370888537439E-15));
#638=CARTESIAN_POINT('Origin',(0.,12.,0.));
#639=CARTESIAN_POINT('Origin',(0.,0.375,0.));
#640=CARTESIAN_POINT('',(-54.25,0.,6.64370888537439E-15));
#641=CARTESIAN_POINT('',(-54.625,0.375,6.68963314034242E-15));
#642=CARTESIAN_POINT('Origin',(0.,0.,0.));
#643=CARTESIAN_POINT('Origin',(-55.,0.,0.));
#644=CARTESIAN_POINT('',(41.5,0.,-5.08228421646152E-15));
#645=CARTESIAN_POINT('Origin',(0.,0.,0.));
#646=CARTESIAN_POINT('Origin',(0.,11.625,0.));
#647=CARTESIAN_POINT('',(-54.625,11.625,6.68963314034242E-15));
#648=CARTESIAN_POINT('Origin',(0.,5.,0.));
#649=CARTESIAN_POINT('Origin',(-6.72571235822733E-15,5.,-54.9196091714773));
#650=CARTESIAN_POINT('Origin',(0.,9.3,0.));
#651=CARTESIAN_POINT('',(38.4,6.6,-4.70264370872584E-15));
#652=CARTESIAN_POINT('',(38.4,9.3,-4.70264370872584E-15));
#653=CARTESIAN_POINT('Origin',(0.,6.6,0.));
#654=CARTESIAN_POINT('Origin',(-36.6,6.6,0.));
#655=CARTESIAN_POINT('',(36.6,6.6,-4.48220728487931E-15));
#656=CARTESIAN_POINT('Origin',(0.,6.6,0.));
#657=CARTESIAN_POINT('Origin',(0.,5.55,0.));
#658=CARTESIAN_POINT('',(36.6,4.5,-4.48220728487931E-15));
#659=CARTESIAN_POINT('',(36.6,5.55,-4.48220728487931E-15));
#660=CARTESIAN_POINT('Origin',(0.,4.5,0.));
#661=CARTESIAN_POINT('Origin',(-41.5,4.5,0.));
#662=CARTESIAN_POINT('',(41.5,4.5,-5.08228421646152E-15));
#663=CARTESIAN_POINT('Origin',(0.,4.5,0.));
#664=CARTESIAN_POINT('Origin',(0.,2.25,0.));
#665=CARTESIAN_POINT('',(41.5,2.25,-5.08228421646152E-15));
#666=UNCERTAINTY_MEASURE_WITH_UNIT(LENGTH_MEASURE(0.01),#670,
'DISTANCE_ACCURACY_VALUE',
'Maximum model space distance between geometric entities at asserted c
onnectivities');
#667=UNCERTAINTY_MEASURE_WITH_UNIT(LENGTH_MEASURE(0.01),#670,
'DISTANCE_ACCURACY_VALUE',
'Maximum model space distance between geometric entities at asserted c
onnectivities');
#668=(
GEOMETRIC_REPRESENTATION_CONTEXT(3)
GLOBAL_UNCERTAINTY_ASSIGNED_CONTEXT((#666))
GLOBAL_UNIT_ASSIGNED_CONTEXT((#670,#672,#673))
REPRESENTATION_CONTEXT('','3D')
);
#669=(
GEOMETRIC_REPRESENTATION_CONTEXT(3)
GLOBAL_UNCERTAINTY_ASSIGNED_CONTEXT((#667))
GLOBAL_UNIT_ASSIGNED_CONTEXT((#670,#672,#673))
REPRESENTATION_CONTEXT('','3D')
);
#670=(
LENGTH_UNIT()
NAMED_UNIT(*)
SI_UNIT(.MILLI.,.METRE.)
);
#671=(
LENGTH_UNIT()
NAMED_UNIT(*)
SI_UNIT(.CENTI.,.METRE.)
);
#672=(
NAMED_UNIT(*)
PLANE_ANGLE_UNIT()
SI_UNIT($,.RADIAN.)
);
#673=(
NAMED_UNIT(*)
SI_UNIT($,.STERADIAN.)
SOLID_ANGLE_UNIT()
);
#674=SHAPE_DEFINITION_REPRESENTATION(#675,#676);
#675=PRODUCT_DEFINITION_SHAPE('',$,#678);
#676=SHAPE_REPRESENTATION('',(#372),#668);
#677=PRODUCT_DEFINITION_CONTEXT('part definition',#682,'design');
#678=PRODUCT_DEFINITION('FL-80LF-W','FL-80LF-W',#679,#677);
#679=PRODUCT_DEFINITION_FORMATION('',$,#684);
#680=PRODUCT_RELATED_PRODUCT_CATEGORY('FL-80LF-W','FL-80LF-W',(#684));
#681=APPLICATION_PROTOCOL_DEFINITION('international standard',
'automotive_design',2009,#682);
#682=APPLICATION_CONTEXT(
'Core Data for Automotive Mechanical Design Process');
#683=PRODUCT_CONTEXT('part definition',#682,'mechanical');
#684=PRODUCT('FL-80LF-W','FL-80LF-W',$,(#683));
#685=PRESENTATION_STYLE_ASSIGNMENT((#686));
#686=SURFACE_STYLE_USAGE(.BOTH.,#689);
#687=SURFACE_STYLE_RENDERING_WITH_PROPERTIES($,#693,(#688));
#688=SURFACE_STYLE_TRANSPARENT(0.);
#689=SURFACE_SIDE_STYLE('',(#690,#687));
#690=SURFACE_STYLE_FILL_AREA(#691);
#691=FILL_AREA_STYLE('',(#692));
#692=FILL_AREA_STYLE_COLOUR('',#693);
#693=COLOUR_RGB('',0.745098039215686,0.737254901960784,0.729411764705882);
ENDSEC;
END-ISO-10303-21;
