ISO-10303-21;
HEADER;
/* Generated by software containing ST-Developer
 * from STEP Tools, Inc. (www.steptools.com) 
 */

FILE_DESCRIPTION(
/* description */ (''),
/* implementation_level */ '2;1');

FILE_NAME(
/* name */ 'FL-100LFB-W.stp',
/* time_stamp */ '2023-10-09T09:57:18+01:00',
/* author */ ('PaulJarvis'),
/* organization */ (''),
/* preprocessor_version */ 'ST-DEVELOPER v19.2',
/* originating_system */ 'Autodesk Inventor 2023',
/* authorisation */ '');

FILE_SCHEMA (('AUTOMOTIVE_DESIGN { 1 0 10303 214 3 1 1 }'));
ENDSEC;

DATA;
#10=MECHANICAL_DESIGN_GEOMETRIC_PRESENTATION_REPRESENTATION('',(#17),#543);
#11=GEOMETRICALLY_BOUNDED_WIREFRAME_SHAPE_REPRESENTATION('',(#12),#542);
#12=GEOMETRIC_CURVE_SET('Sketch3',(#16,#539));
#13=SHAPE_REPRESENTATION_RELATIONSHIP('SRR','None',#550,#15);
#14=SHAPE_REPRESENTATION_RELATIONSHIP('SRR','None',#550,#11);
#15=ADVANCED_BREP_SHAPE_REPRESENTATION('',(#18),#542);
#16=POLYLINE('',(#537,#538));
#17=STYLED_ITEM('',(#559),#18);
#18=MANIFOLD_SOLID_BREP('Solid1',#303);
#19=FACE_BOUND('',#68,.T.);
#20=FACE_BOUND('',#69,.T.);
#21=FACE_BOUND('',#70,.T.);
#22=FACE_BOUND('',#71,.T.);
#23=FACE_BOUND('',#72,.T.);
#24=FACE_BOUND('',#73,.T.);
#25=FACE_BOUND('',#74,.T.);
#26=FACE_BOUND('',#75,.T.);
#27=FACE_BOUND('',#76,.T.);
#28=FACE_BOUND('',#79,.T.);
#29=FACE_BOUND('',#80,.T.);
#30=FACE_BOUND('',#81,.T.);
#31=FACE_BOUND('',#82,.T.);
#32=FACE_BOUND('',#83,.T.);
#33=FACE_BOUND('',#84,.T.);
#34=FACE_BOUND('',#85,.T.);
#35=FACE_BOUND('',#86,.T.);
#36=FACE_BOUND('',#87,.T.);
#37=FACE_BOUND('',#90,.T.);
#38=FACE_BOUND('',#93,.T.);
#39=PLANE('',#350);
#40=PLANE('',#355);
#41=PLANE('',#359);
#42=PLANE('',#363);
#43=FACE_OUTER_BOUND('',#59,.T.);
#44=FACE_OUTER_BOUND('',#60,.T.);
#45=FACE_OUTER_BOUND('',#61,.T.);
#46=FACE_OUTER_BOUND('',#62,.T.);
#47=FACE_OUTER_BOUND('',#63,.T.);
#48=FACE_OUTER_BOUND('',#64,.T.);
#49=FACE_OUTER_BOUND('',#65,.T.);
#50=FACE_OUTER_BOUND('',#66,.T.);
#51=FACE_OUTER_BOUND('',#67,.T.);
#52=FACE_OUTER_BOUND('',#77,.T.);
#53=FACE_OUTER_BOUND('',#78,.T.);
#54=FACE_OUTER_BOUND('',#88,.T.);
#55=FACE_OUTER_BOUND('',#89,.T.);
#56=FACE_OUTER_BOUND('',#91,.T.);
#57=FACE_OUTER_BOUND('',#92,.T.);
#58=FACE_OUTER_BOUND('',#94,.T.);
#59=EDGE_LOOP('',(#203,#204,#205,#206));
#60=EDGE_LOOP('',(#207,#208,#209,#210));
#61=EDGE_LOOP('',(#211,#212,#213,#214));
#62=EDGE_LOOP('',(#215,#216,#217,#218));
#63=EDGE_LOOP('',(#219,#220,#221,#222));
#64=EDGE_LOOP('',(#223,#224,#225,#226));
#65=EDGE_LOOP('',(#227,#228,#229,#230));
#66=EDGE_LOOP('',(#231,#232,#233,#234));
#67=EDGE_LOOP('',(#235));
#68=EDGE_LOOP('',(#236));
#69=EDGE_LOOP('',(#237));
#70=EDGE_LOOP('',(#238));
#71=EDGE_LOOP('',(#239));
#72=EDGE_LOOP('',(#240));
#73=EDGE_LOOP('',(#241));
#74=EDGE_LOOP('',(#242));
#75=EDGE_LOOP('',(#243));
#76=EDGE_LOOP('',(#244));
#77=EDGE_LOOP('',(#245,#246,#247,#248));
#78=EDGE_LOOP('',(#249));
#79=EDGE_LOOP('',(#250));
#80=EDGE_LOOP('',(#251));
#81=EDGE_LOOP('',(#252));
#82=EDGE_LOOP('',(#253));
#83=EDGE_LOOP('',(#254));
#84=EDGE_LOOP('',(#255));
#85=EDGE_LOOP('',(#256));
#86=EDGE_LOOP('',(#257));
#87=EDGE_LOOP('',(#258));
#88=EDGE_LOOP('',(#259,#260,#261,#262));
#89=EDGE_LOOP('',(#263));
#90=EDGE_LOOP('',(#264));
#91=EDGE_LOOP('',(#265,#266,#267,#268));
#92=EDGE_LOOP('',(#269));
#93=EDGE_LOOP('',(#270));
#94=EDGE_LOOP('',(#271,#272,#273,#274));
#95=LINE('',#465,#107);
#96=LINE('',#471,#108);
#97=LINE('',#477,#109);
#98=LINE('',#483,#110);
#99=LINE('',#489,#111);
#100=LINE('',#495,#112);
#101=LINE('',#501,#113);
#102=LINE('',#507,#114);
#103=LINE('',#517,#115);
#104=LINE('',#523,#116);
#105=LINE('',#530,#117);
#106=LINE('',#536,#118);
#107=VECTOR('',#372,4.5);
#108=VECTOR('',#379,4.5);
#109=VECTOR('',#386,4.5);
#110=VECTOR('',#393,4.5);
#111=VECTOR('',#400,4.5);
#112=VECTOR('',#407,4.5);
#113=VECTOR('',#414,4.5);
#114=VECTOR('',#421,4.5);
#115=VECTOR('',#434,82.5);
#116=VECTOR('',#441,51.1);
#117=VECTOR('',#450,49.3);
#118=VECTOR('',#459,51.05);
#119=CIRCLE('',#327,4.5);
#120=CIRCLE('',#328,4.5);
#121=CIRCLE('',#330,4.5);
#122=CIRCLE('',#331,4.5);
#123=CIRCLE('',#333,4.5);
#124=CIRCLE('',#334,4.5);
#125=CIRCLE('',#336,4.5);
#126=CIRCLE('',#337,4.5);
#127=CIRCLE('',#339,4.5);
#128=CIRCLE('',#340,4.5);
#129=CIRCLE('',#342,4.5);
#130=CIRCLE('',#343,4.5);
#131=CIRCLE('',#345,4.5);
#132=CIRCLE('',#346,4.5);
#133=CIRCLE('',#348,4.5);
#134=CIRCLE('',#349,4.5);
#135=CIRCLE('',#351,82.4999999999999);
#136=CIRCLE('',#352,51.05);
#137=CIRCLE('',#354,82.5);
#138=CIRCLE('',#356,51.1);
#139=CIRCLE('',#358,51.1);
#140=CIRCLE('',#360,49.3);
#141=CIRCLE('',#362,49.3);
#142=CIRCLE('',#364,51.05);
#143=VERTEX_POINT('',#462);
#144=VERTEX_POINT('',#464);
#145=VERTEX_POINT('',#468);
#146=VERTEX_POINT('',#470);
#147=VERTEX_POINT('',#474);
#148=VERTEX_POINT('',#476);
#149=VERTEX_POINT('',#480);
#150=VERTEX_POINT('',#482);
#151=VERTEX_POINT('',#486);
#152=VERTEX_POINT('',#488);
#153=VERTEX_POINT('',#492);
#154=VERTEX_POINT('',#494);
#155=VERTEX_POINT('',#498);
#156=VERTEX_POINT('',#500);
#157=VERTEX_POINT('',#504);
#158=VERTEX_POINT('',#506);
#159=VERTEX_POINT('',#510);
#160=VERTEX_POINT('',#512);
#161=VERTEX_POINT('',#515);
#162=VERTEX_POINT('',#519);
#163=VERTEX_POINT('',#522);
#164=VERTEX_POINT('',#526);
#165=VERTEX_POINT('',#529);
#166=VERTEX_POINT('',#533);
#167=EDGE_CURVE('',#143,#143,#119,.T.);
#168=EDGE_CURVE('',#143,#144,#95,.T.);
#169=EDGE_CURVE('',#144,#144,#120,.T.);
#170=EDGE_CURVE('',#145,#145,#121,.T.);
#171=EDGE_CURVE('',#145,#146,#96,.T.);
#172=EDGE_CURVE('',#146,#146,#122,.T.);
#173=EDGE_CURVE('',#147,#147,#123,.T.);
#174=EDGE_CURVE('',#147,#148,#97,.T.);
#175=EDGE_CURVE('',#148,#148,#124,.T.);
#176=EDGE_CURVE('',#149,#149,#125,.T.);
#177=EDGE_CURVE('',#149,#150,#98,.T.);
#178=EDGE_CURVE('',#150,#150,#126,.T.);
#179=EDGE_CURVE('',#151,#151,#127,.T.);
#180=EDGE_CURVE('',#151,#152,#99,.T.);
#181=EDGE_CURVE('',#152,#152,#128,.T.);
#182=EDGE_CURVE('',#153,#153,#129,.T.);
#183=EDGE_CURVE('',#153,#154,#100,.T.);
#184=EDGE_CURVE('',#154,#154,#130,.T.);
#185=EDGE_CURVE('',#155,#155,#131,.T.);
#186=EDGE_CURVE('',#155,#156,#101,.T.);
#187=EDGE_CURVE('',#156,#156,#132,.T.);
#188=EDGE_CURVE('',#157,#157,#133,.T.);
#189=EDGE_CURVE('',#157,#158,#102,.T.);
#190=EDGE_CURVE('',#158,#158,#134,.T.);
#191=EDGE_CURVE('',#159,#159,#135,.T.);
#192=EDGE_CURVE('',#160,#160,#136,.T.);
#193=EDGE_CURVE('',#161,#161,#137,.T.);
#194=EDGE_CURVE('',#161,#159,#103,.T.);
#195=EDGE_CURVE('',#162,#162,#138,.T.);
#196=EDGE_CURVE('',#162,#163,#104,.T.);
#197=EDGE_CURVE('',#163,#163,#139,.T.);
#198=EDGE_CURVE('',#164,#164,#140,.T.);
#199=EDGE_CURVE('',#164,#165,#105,.T.);
#200=EDGE_CURVE('',#165,#165,#141,.T.);
#201=EDGE_CURVE('',#166,#166,#142,.T.);
#202=EDGE_CURVE('',#166,#160,#106,.T.);
#203=ORIENTED_EDGE('',*,*,#167,.F.);
#204=ORIENTED_EDGE('',*,*,#168,.T.);
#205=ORIENTED_EDGE('',*,*,#169,.F.);
#206=ORIENTED_EDGE('',*,*,#168,.F.);
#207=ORIENTED_EDGE('',*,*,#170,.F.);
#208=ORIENTED_EDGE('',*,*,#171,.T.);
#209=ORIENTED_EDGE('',*,*,#172,.F.);
#210=ORIENTED_EDGE('',*,*,#171,.F.);
#211=ORIENTED_EDGE('',*,*,#173,.F.);
#212=ORIENTED_EDGE('',*,*,#174,.T.);
#213=ORIENTED_EDGE('',*,*,#175,.F.);
#214=ORIENTED_EDGE('',*,*,#174,.F.);
#215=ORIENTED_EDGE('',*,*,#176,.F.);
#216=ORIENTED_EDGE('',*,*,#177,.T.);
#217=ORIENTED_EDGE('',*,*,#178,.F.);
#218=ORIENTED_EDGE('',*,*,#177,.F.);
#219=ORIENTED_EDGE('',*,*,#179,.F.);
#220=ORIENTED_EDGE('',*,*,#180,.T.);
#221=ORIENTED_EDGE('',*,*,#181,.F.);
#222=ORIENTED_EDGE('',*,*,#180,.F.);
#223=ORIENTED_EDGE('',*,*,#182,.F.);
#224=ORIENTED_EDGE('',*,*,#183,.T.);
#225=ORIENTED_EDGE('',*,*,#184,.F.);
#226=ORIENTED_EDGE('',*,*,#183,.F.);
#227=ORIENTED_EDGE('',*,*,#185,.F.);
#228=ORIENTED_EDGE('',*,*,#186,.T.);
#229=ORIENTED_EDGE('',*,*,#187,.F.);
#230=ORIENTED_EDGE('',*,*,#186,.F.);
#231=ORIENTED_EDGE('',*,*,#188,.F.);
#232=ORIENTED_EDGE('',*,*,#189,.T.);
#233=ORIENTED_EDGE('',*,*,#190,.F.);
#234=ORIENTED_EDGE('',*,*,#189,.F.);
#235=ORIENTED_EDGE('',*,*,#191,.F.);
#236=ORIENTED_EDGE('',*,*,#167,.T.);
#237=ORIENTED_EDGE('',*,*,#170,.T.);
#238=ORIENTED_EDGE('',*,*,#173,.T.);
#239=ORIENTED_EDGE('',*,*,#176,.T.);
#240=ORIENTED_EDGE('',*,*,#179,.T.);
#241=ORIENTED_EDGE('',*,*,#182,.T.);
#242=ORIENTED_EDGE('',*,*,#185,.T.);
#243=ORIENTED_EDGE('',*,*,#188,.T.);
#244=ORIENTED_EDGE('',*,*,#192,.T.);
#245=ORIENTED_EDGE('',*,*,#193,.F.);
#246=ORIENTED_EDGE('',*,*,#194,.T.);
#247=ORIENTED_EDGE('',*,*,#191,.T.);
#248=ORIENTED_EDGE('',*,*,#194,.F.);
#249=ORIENTED_EDGE('',*,*,#193,.T.);
#250=ORIENTED_EDGE('',*,*,#169,.T.);
#251=ORIENTED_EDGE('',*,*,#172,.T.);
#252=ORIENTED_EDGE('',*,*,#175,.T.);
#253=ORIENTED_EDGE('',*,*,#178,.T.);
#254=ORIENTED_EDGE('',*,*,#181,.T.);
#255=ORIENTED_EDGE('',*,*,#184,.T.);
#256=ORIENTED_EDGE('',*,*,#187,.T.);
#257=ORIENTED_EDGE('',*,*,#190,.T.);
#258=ORIENTED_EDGE('',*,*,#195,.F.);
#259=ORIENTED_EDGE('',*,*,#195,.T.);
#260=ORIENTED_EDGE('',*,*,#196,.T.);
#261=ORIENTED_EDGE('',*,*,#197,.F.);
#262=ORIENTED_EDGE('',*,*,#196,.F.);
#263=ORIENTED_EDGE('',*,*,#197,.T.);
#264=ORIENTED_EDGE('',*,*,#198,.F.);
#265=ORIENTED_EDGE('',*,*,#198,.T.);
#266=ORIENTED_EDGE('',*,*,#199,.T.);
#267=ORIENTED_EDGE('',*,*,#200,.F.);
#268=ORIENTED_EDGE('',*,*,#199,.F.);
#269=ORIENTED_EDGE('',*,*,#201,.F.);
#270=ORIENTED_EDGE('',*,*,#200,.T.);
#271=ORIENTED_EDGE('',*,*,#201,.T.);
#272=ORIENTED_EDGE('',*,*,#202,.T.);
#273=ORIENTED_EDGE('',*,*,#192,.F.);
#274=ORIENTED_EDGE('',*,*,#202,.F.);
#275=CYLINDRICAL_SURFACE('',#326,4.5);
#276=CYLINDRICAL_SURFACE('',#329,4.5);
#277=CYLINDRICAL_SURFACE('',#332,4.5);
#278=CYLINDRICAL_SURFACE('',#335,4.5);
#279=CYLINDRICAL_SURFACE('',#338,4.5);
#280=CYLINDRICAL_SURFACE('',#341,4.5);
#281=CYLINDRICAL_SURFACE('',#344,4.5);
#282=CYLINDRICAL_SURFACE('',#347,4.5);
#283=CYLINDRICAL_SURFACE('',#353,82.5);
#284=CYLINDRICAL_SURFACE('',#357,51.1);
#285=CYLINDRICAL_SURFACE('',#361,49.3);
#286=CYLINDRICAL_SURFACE('',#365,51.05);
#287=ADVANCED_FACE('',(#43),#275,.F.);
#288=ADVANCED_FACE('',(#44),#276,.F.);
#289=ADVANCED_FACE('',(#45),#277,.F.);
#290=ADVANCED_FACE('',(#46),#278,.F.);
#291=ADVANCED_FACE('',(#47),#279,.F.);
#292=ADVANCED_FACE('',(#48),#280,.F.);
#293=ADVANCED_FACE('',(#49),#281,.F.);
#294=ADVANCED_FACE('',(#50),#282,.F.);
#295=ADVANCED_FACE('',(#51,#19,#20,#21,#22,#23,#24,#25,#26,#27),#39,.T.);
#296=ADVANCED_FACE('',(#52),#283,.T.);
#297=ADVANCED_FACE('',(#53,#28,#29,#30,#31,#32,#33,#34,#35,#36),#40,.T.);
#298=ADVANCED_FACE('',(#54),#284,.F.);
#299=ADVANCED_FACE('',(#55,#37),#41,.T.);
#300=ADVANCED_FACE('',(#56),#285,.F.);
#301=ADVANCED_FACE('',(#57,#38),#42,.T.);
#302=ADVANCED_FACE('',(#58),#286,.F.);
#303=CLOSED_SHELL('',(#287,#288,#289,#290,#291,#292,#293,#294,#295,#296,
#297,#298,#299,#300,#301,#302));
#304=DERIVED_UNIT_ELEMENT(#307,1.);
#305=DERIVED_UNIT_ELEMENT(#545,-3.);
#306=DIMENSIONAL_EXPONENTS(0.,1.,0.,0.,0.,0.,0.);
#307=(
CONVERSION_BASED_UNIT('gram',#309)
MASS_UNIT()
NAMED_UNIT(#306)
);
#308=(
MASS_UNIT()
NAMED_UNIT(*)
SI_UNIT(.KILO.,.GRAM.)
);
#309=MASS_MEASURE_WITH_UNIT(MASS_MEASURE(0.001),#308);
#310=DERIVED_UNIT((#304,#305));
#311=MEASURE_REPRESENTATION_ITEM('density measure',
POSITIVE_RATIO_MEASURE(1.),#310);
#312=PROPERTY_DEFINITION_REPRESENTATION(#317,#314);
#313=PROPERTY_DEFINITION_REPRESENTATION(#318,#315);
#314=REPRESENTATION('material name',(#316),#542);
#315=REPRESENTATION('density',(#311),#542);
#316=DESCRIPTIVE_REPRESENTATION_ITEM('Generic','Generic');
#317=PROPERTY_DEFINITION('material property','material name',#552);
#318=PROPERTY_DEFINITION('material property','density of part',#552);
#319=DATE_TIME_ROLE('creation_date');
#320=APPLIED_DATE_AND_TIME_ASSIGNMENT(#321,#319,(#552));
#321=DATE_AND_TIME(#322,#323);
#322=CALENDAR_DATE(2014,31,7);
#323=LOCAL_TIME(0,0,0.,#324);
#324=COORDINATED_UNIVERSAL_TIME_OFFSET(0,0,.BEHIND.);
#325=AXIS2_PLACEMENT_3D('',#460,#366,#367);
#326=AXIS2_PLACEMENT_3D('',#461,#368,#369);
#327=AXIS2_PLACEMENT_3D('',#463,#370,#371);
#328=AXIS2_PLACEMENT_3D('',#466,#373,#374);
#329=AXIS2_PLACEMENT_3D('',#467,#375,#376);
#330=AXIS2_PLACEMENT_3D('',#469,#377,#378);
#331=AXIS2_PLACEMENT_3D('',#472,#380,#381);
#332=AXIS2_PLACEMENT_3D('',#473,#382,#383);
#333=AXIS2_PLACEMENT_3D('',#475,#384,#385);
#334=AXIS2_PLACEMENT_3D('',#478,#387,#388);
#335=AXIS2_PLACEMENT_3D('',#479,#389,#390);
#336=AXIS2_PLACEMENT_3D('',#481,#391,#392);
#337=AXIS2_PLACEMENT_3D('',#484,#394,#395);
#338=AXIS2_PLACEMENT_3D('',#485,#396,#397);
#339=AXIS2_PLACEMENT_3D('',#487,#398,#399);
#340=AXIS2_PLACEMENT_3D('',#490,#401,#402);
#341=AXIS2_PLACEMENT_3D('',#491,#403,#404);
#342=AXIS2_PLACEMENT_3D('',#493,#405,#406);
#343=AXIS2_PLACEMENT_3D('',#496,#408,#409);
#344=AXIS2_PLACEMENT_3D('',#497,#410,#411);
#345=AXIS2_PLACEMENT_3D('',#499,#412,#413);
#346=AXIS2_PLACEMENT_3D('',#502,#415,#416);
#347=AXIS2_PLACEMENT_3D('',#503,#417,#418);
#348=AXIS2_PLACEMENT_3D('',#505,#419,#420);
#349=AXIS2_PLACEMENT_3D('',#508,#422,#423);
#350=AXIS2_PLACEMENT_3D('',#509,#424,#425);
#351=AXIS2_PLACEMENT_3D('',#511,#426,#427);
#352=AXIS2_PLACEMENT_3D('',#513,#428,#429);
#353=AXIS2_PLACEMENT_3D('',#514,#430,#431);
#354=AXIS2_PLACEMENT_3D('',#516,#432,#433);
#355=AXIS2_PLACEMENT_3D('',#518,#435,#436);
#356=AXIS2_PLACEMENT_3D('',#520,#437,#438);
#357=AXIS2_PLACEMENT_3D('',#521,#439,#440);
#358=AXIS2_PLACEMENT_3D('',#524,#442,#443);
#359=AXIS2_PLACEMENT_3D('',#525,#444,#445);
#360=AXIS2_PLACEMENT_3D('',#527,#446,#447);
#361=AXIS2_PLACEMENT_3D('',#528,#448,#449);
#362=AXIS2_PLACEMENT_3D('',#531,#451,#452);
#363=AXIS2_PLACEMENT_3D('',#532,#453,#454);
#364=AXIS2_PLACEMENT_3D('',#534,#455,#456);
#365=AXIS2_PLACEMENT_3D('',#535,#457,#458);
#366=DIRECTION('axis',(0.,0.,1.));
#367=DIRECTION('refdir',(1.,0.,0.));
#368=DIRECTION('center_axis',(1.,0.,0.));
#369=DIRECTION('ref_axis',(0.,0.707106781186548,-0.707106781186547));
#370=DIRECTION('center_axis',(-1.,0.,0.));
#371=DIRECTION('ref_axis',(0.,0.707106781186548,-0.707106781186547));
#372=DIRECTION('',(-1.,0.,0.));
#373=DIRECTION('center_axis',(1.,0.,0.));
#374=DIRECTION('ref_axis',(0.,0.707106781186548,-0.707106781186547));
#375=DIRECTION('center_axis',(1.,0.,0.));
#376=DIRECTION('ref_axis',(0.,1.,1.85037170770859E-16));
#377=DIRECTION('center_axis',(-1.,0.,0.));
#378=DIRECTION('ref_axis',(0.,1.,1.85037170770859E-16));
#379=DIRECTION('',(-1.,0.,0.));
#380=DIRECTION('center_axis',(1.,0.,0.));
#381=DIRECTION('ref_axis',(0.,1.,1.85037170770859E-16));
#382=DIRECTION('center_axis',(1.,0.,0.));
#383=DIRECTION('ref_axis',(0.,0.707106781186547,0.707106781186548));
#384=DIRECTION('center_axis',(-1.,0.,0.));
#385=DIRECTION('ref_axis',(0.,0.707106781186547,0.707106781186548));
#386=DIRECTION('',(-1.,0.,0.));
#387=DIRECTION('center_axis',(1.,0.,0.));
#388=DIRECTION('ref_axis',(0.,0.707106781186547,0.707106781186548));
#389=DIRECTION('center_axis',(1.,0.,0.));
#390=DIRECTION('ref_axis',(0.,-1.85037170770859E-16,1.));
#391=DIRECTION('center_axis',(-1.,0.,0.));
#392=DIRECTION('ref_axis',(0.,-1.85037170770859E-16,1.));
#393=DIRECTION('',(-1.,0.,0.));
#394=DIRECTION('center_axis',(1.,0.,0.));
#395=DIRECTION('ref_axis',(0.,-1.85037170770859E-16,1.));
#396=DIRECTION('center_axis',(1.,0.,0.));
#397=DIRECTION('ref_axis',(0.,-0.707106781186548,0.707106781186547));
#398=DIRECTION('center_axis',(-1.,0.,0.));
#399=DIRECTION('ref_axis',(0.,-0.707106781186548,0.707106781186547));
#400=DIRECTION('',(-1.,0.,0.));
#401=DIRECTION('center_axis',(1.,0.,0.));
#402=DIRECTION('ref_axis',(0.,-0.707106781186548,0.707106781186547));
#403=DIRECTION('center_axis',(1.,0.,0.));
#404=DIRECTION('ref_axis',(0.,-1.,0.));
#405=DIRECTION('center_axis',(-1.,0.,0.));
#406=DIRECTION('ref_axis',(0.,-1.,0.));
#407=DIRECTION('',(-1.,0.,0.));
#408=DIRECTION('center_axis',(1.,0.,0.));
#409=DIRECTION('ref_axis',(0.,-1.,0.));
#410=DIRECTION('center_axis',(1.,0.,0.));
#411=DIRECTION('ref_axis',(0.,-0.707106781186548,-0.707106781186548));
#412=DIRECTION('center_axis',(-1.,0.,0.));
#413=DIRECTION('ref_axis',(0.,-0.707106781186548,-0.707106781186548));
#414=DIRECTION('',(-1.,0.,0.));
#415=DIRECTION('center_axis',(1.,0.,0.));
#416=DIRECTION('ref_axis',(0.,-0.707106781186548,-0.707106781186548));
#417=DIRECTION('center_axis',(1.,0.,0.));
#418=DIRECTION('ref_axis',(0.,0.,-1.));
#419=DIRECTION('center_axis',(-1.,0.,0.));
#420=DIRECTION('ref_axis',(0.,0.,-1.));
#421=DIRECTION('',(-1.,0.,0.));
#422=DIRECTION('center_axis',(1.,0.,0.));
#423=DIRECTION('ref_axis',(0.,0.,-1.));
#424=DIRECTION('center_axis',(1.,0.,0.));
#425=DIRECTION('ref_axis',(0.,0.,-1.));
#426=DIRECTION('center_axis',(-1.,0.,0.));
#427=DIRECTION('ref_axis',(0.,0.,1.));
#428=DIRECTION('center_axis',(-1.,0.,0.));
#429=DIRECTION('ref_axis',(0.,0.,1.));
#430=DIRECTION('center_axis',(-1.,0.,0.));
#431=DIRECTION('ref_axis',(0.,0.,1.));
#432=DIRECTION('center_axis',(-1.,0.,0.));
#433=DIRECTION('ref_axis',(0.,0.,1.));
#434=DIRECTION('',(1.,0.,0.));
#435=DIRECTION('center_axis',(-1.,0.,0.));
#436=DIRECTION('ref_axis',(0.,0.,1.));
#437=DIRECTION('center_axis',(-1.,0.,0.));
#438=DIRECTION('ref_axis',(0.,0.,1.));
#439=DIRECTION('center_axis',(-1.,0.,0.));
#440=DIRECTION('ref_axis',(0.,0.,1.));
#441=DIRECTION('',(1.,0.,0.));
#442=DIRECTION('center_axis',(-1.,0.,0.));
#443=DIRECTION('ref_axis',(0.,0.,1.));
#444=DIRECTION('center_axis',(-1.,0.,0.));
#445=DIRECTION('ref_axis',(0.,0.,1.));
#446=DIRECTION('center_axis',(-1.,0.,0.));
#447=DIRECTION('ref_axis',(0.,0.,1.));
#448=DIRECTION('center_axis',(-1.,0.,0.));
#449=DIRECTION('ref_axis',(0.,0.,1.));
#450=DIRECTION('',(1.,0.,0.));
#451=DIRECTION('center_axis',(-1.,0.,0.));
#452=DIRECTION('ref_axis',(0.,0.,1.));
#453=DIRECTION('center_axis',(1.,0.,0.));
#454=DIRECTION('ref_axis',(0.,0.,-1.));
#455=DIRECTION('center_axis',(-1.,0.,0.));
#456=DIRECTION('ref_axis',(0.,0.,1.));
#457=DIRECTION('center_axis',(-1.,0.,0.));
#458=DIRECTION('ref_axis',(0.,0.,1.));
#459=DIRECTION('',(1.,0.,0.));
#460=CARTESIAN_POINT('',(0.,0.,0.));
#461=CARTESIAN_POINT('Origin',(-233.653589743449,-51.2652416360247,51.2652416360247));
#462=CARTESIAN_POINT('',(0.,-54.4472221513642,54.4472221513642));
#463=CARTESIAN_POINT('Origin',(0.,-51.2652416360247,51.2652416360247));
#464=CARTESIAN_POINT('',(-12.,-54.4472221513642,54.4472221513642));
#465=CARTESIAN_POINT('',(-233.653589743449,-54.4472221513642,54.4472221513642));
#466=CARTESIAN_POINT('Origin',(-12.,-51.2652416360247,51.2652416360247));
#467=CARTESIAN_POINT('Origin',(-233.653589743449,-72.5,-1.33226762955019E-14));
#468=CARTESIAN_POINT('',(0.,-77.,-1.47064346235871E-14));
#469=CARTESIAN_POINT('Origin',(0.,-72.5,-1.33226762955019E-14));
#470=CARTESIAN_POINT('',(-12.,-77.,-1.33226762955019E-14));
#471=CARTESIAN_POINT('',(-233.653589743449,-77.,-1.47064346235871E-14));
#472=CARTESIAN_POINT('Origin',(-12.,-72.5,-1.33226762955019E-14));
#473=CARTESIAN_POINT('Origin',(-233.653589743449,-51.2652416360247,-51.2652416360247));
#474=CARTESIAN_POINT('',(0.,-54.4472221513642,-54.4472221513642));
#475=CARTESIAN_POINT('Origin',(0.,-51.2652416360247,-51.2652416360247));
#476=CARTESIAN_POINT('',(-12.,-54.4472221513642,-54.4472221513642));
#477=CARTESIAN_POINT('',(-233.653589743449,-54.4472221513642,-54.4472221513642));
#478=CARTESIAN_POINT('Origin',(-12.,-51.2652416360247,-51.2652416360247));
#479=CARTESIAN_POINT('Origin',(-233.653589743449,1.33226762955019E-14,-72.5));
#480=CARTESIAN_POINT('',(0.,1.47064346235871E-14,-77.));
#481=CARTESIAN_POINT('Origin',(0.,1.33226762955019E-14,-72.5));
#482=CARTESIAN_POINT('',(-12.,1.33226762955019E-14,-77.));
#483=CARTESIAN_POINT('',(-233.653589743449,1.47064346235871E-14,-77.));
#484=CARTESIAN_POINT('Origin',(-12.,1.33226762955019E-14,-72.5));
#485=CARTESIAN_POINT('Origin',(-233.653589743449,51.2652416360247,-51.2652416360247));
#486=CARTESIAN_POINT('',(0.,54.4472221513642,-54.4472221513642));
#487=CARTESIAN_POINT('Origin',(0.,51.2652416360247,-51.2652416360247));
#488=CARTESIAN_POINT('',(-12.,54.4472221513642,-54.4472221513642));
#489=CARTESIAN_POINT('',(-233.653589743449,54.4472221513642,-54.4472221513642));
#490=CARTESIAN_POINT('Origin',(-12.,51.2652416360247,-51.2652416360247));
#491=CARTESIAN_POINT('Origin',(-233.653589743449,72.5,0.));
#492=CARTESIAN_POINT('',(0.,77.,5.51091059616309E-16));
#493=CARTESIAN_POINT('Origin',(0.,72.5,0.));
#494=CARTESIAN_POINT('',(-12.,77.,0.));
#495=CARTESIAN_POINT('',(-233.653589743449,77.,5.51091059616309E-16));
#496=CARTESIAN_POINT('Origin',(-12.,72.5,0.));
#497=CARTESIAN_POINT('Origin',(-233.653589743449,51.2652416360247,51.2652416360247));
#498=CARTESIAN_POINT('',(0.,54.4472221513642,54.4472221513642));
#499=CARTESIAN_POINT('Origin',(0.,51.2652416360247,51.2652416360247));
#500=CARTESIAN_POINT('',(-12.,54.4472221513642,54.4472221513642));
#501=CARTESIAN_POINT('',(-233.653589743449,54.4472221513642,54.4472221513642));
#502=CARTESIAN_POINT('Origin',(-12.,51.2652416360247,51.2652416360247));
#503=CARTESIAN_POINT('Origin',(-233.653589743449,0.,72.5));
#504=CARTESIAN_POINT('',(0.,-5.51091059616309E-16,77.));
#505=CARTESIAN_POINT('Origin',(0.,0.,72.5));
#506=CARTESIAN_POINT('',(-12.,-5.51091059616309E-16,77.));
#507=CARTESIAN_POINT('',(-233.653589743449,-5.51091059616309E-16,77.));
#508=CARTESIAN_POINT('Origin',(-12.,0.,72.5));
#509=CARTESIAN_POINT('Origin',(-1.37263937590019E-14,0.,82.4999999999999));
#510=CARTESIAN_POINT('',(-1.4432899320127E-14,-1.01033360929657E-14,-82.5));
#511=CARTESIAN_POINT('Origin',(-1.36002320516582E-14,0.,0.));
#512=CARTESIAN_POINT('',(-2.77555756156289E-16,-6.25182190964724E-15,-51.05));
#513=CARTESIAN_POINT('Origin',(0.,0.,0.));
#514=CARTESIAN_POINT('Origin',(-6.00000000000001,0.,0.));
#515=CARTESIAN_POINT('',(-12.,-1.01033360929657E-14,-82.5));
#516=CARTESIAN_POINT('Origin',(-12.,0.,0.));
#517=CARTESIAN_POINT('',(-6.00000000000001,-1.01033360929657E-14,-82.5));
#518=CARTESIAN_POINT('Origin',(-12.,0.,51.1));
#519=CARTESIAN_POINT('',(-12.,-6.25794514364298E-15,-51.1));
#520=CARTESIAN_POINT('Origin',(-12.,0.,0.));
#521=CARTESIAN_POINT('Origin',(-9.3,0.,0.));
#522=CARTESIAN_POINT('',(-6.6,-6.25794514364298E-15,-51.1));
#523=CARTESIAN_POINT('',(-9.3,-6.25794514364298E-15,-51.1));
#524=CARTESIAN_POINT('Origin',(-6.6,0.,0.));
#525=CARTESIAN_POINT('Origin',(-6.6,0.,49.3));
#526=CARTESIAN_POINT('',(-6.6,-6.03750871979645E-15,-49.3));
#527=CARTESIAN_POINT('Origin',(-6.6,0.,0.));
#528=CARTESIAN_POINT('Origin',(-5.55,0.,0.));
#529=CARTESIAN_POINT('',(-4.5,-6.03750871979645E-15,-49.3));
#530=CARTESIAN_POINT('',(-5.55,-6.03750871979645E-15,-49.3));
#531=CARTESIAN_POINT('Origin',(-4.5,0.,0.));
#532=CARTESIAN_POINT('Origin',(-4.5,0.,51.05));
#533=CARTESIAN_POINT('',(-4.5,-6.25182190964724E-15,-51.05));
#534=CARTESIAN_POINT('Origin',(-4.5,0.,0.));
#535=CARTESIAN_POINT('Origin',(-2.25,0.,0.));
#536=CARTESIAN_POINT('',(-2.25,-6.25182190964724E-15,-51.05));
#537=CARTESIAN_POINT('polyline point',(-1.37263937590019E-14,0.,72.4214209051945));
#538=CARTESIAN_POINT('polyline point',(-1.37263937590019E-14,0.,34.2457881799757));
#539=CARTESIAN_POINT('',(-1.37263937590019E-14,0.,0.));
#540=UNCERTAINTY_MEASURE_WITH_UNIT(LENGTH_MEASURE(0.01),#544,
'DISTANCE_ACCURACY_VALUE',
'Maximum model space distance between geometric entities at asserted c
onnectivities');
#541=UNCERTAINTY_MEASURE_WITH_UNIT(LENGTH_MEASURE(0.01),#544,
'DISTANCE_ACCURACY_VALUE',
'Maximum model space distance between geometric entities at asserted c
onnectivities');
#542=(
GEOMETRIC_REPRESENTATION_CONTEXT(3)
GLOBAL_UNCERTAINTY_ASSIGNED_CONTEXT((#540))
GLOBAL_UNIT_ASSIGNED_CONTEXT((#544,#546,#547))
REPRESENTATION_CONTEXT('','3D')
);
#543=(
GEOMETRIC_REPRESENTATION_CONTEXT(3)
GLOBAL_UNCERTAINTY_ASSIGNED_CONTEXT((#541))
GLOBAL_UNIT_ASSIGNED_CONTEXT((#544,#546,#547))
REPRESENTATION_CONTEXT('','3D')
);
#544=(
LENGTH_UNIT()
NAMED_UNIT(*)
SI_UNIT(.MILLI.,.METRE.)
);
#545=(
LENGTH_UNIT()
NAMED_UNIT(*)
SI_UNIT(.CENTI.,.METRE.)
);
#546=(
NAMED_UNIT(*)
PLANE_ANGLE_UNIT()
SI_UNIT($,.RADIAN.)
);
#547=(
NAMED_UNIT(*)
SI_UNIT($,.STERADIAN.)
SOLID_ANGLE_UNIT()
);
#548=SHAPE_DEFINITION_REPRESENTATION(#549,#550);
#549=PRODUCT_DEFINITION_SHAPE('',$,#552);
#550=SHAPE_REPRESENTATION('',(#325),#542);
#551=PRODUCT_DEFINITION_CONTEXT('part definition',#556,'design');
#552=PRODUCT_DEFINITION('FL-100LFB-W','FL-100LFB-W',#553,#551);
#553=PRODUCT_DEFINITION_FORMATION('',$,#558);
#554=PRODUCT_RELATED_PRODUCT_CATEGORY('FL-100LFB-W','FL-100LFB-W',(#558));
#555=APPLICATION_PROTOCOL_DEFINITION('international standard',
'automotive_design',2009,#556);
#556=APPLICATION_CONTEXT(
'Core Data for Automotive Mechanical Design Process');
#557=PRODUCT_CONTEXT('part definition',#556,'mechanical');
#558=PRODUCT('FL-100LFB-W','FL-100LFB-W',$,(#557));
#559=PRESENTATION_STYLE_ASSIGNMENT((#561));
#560=PRESENTATION_STYLE_ASSIGNMENT((#562));
#561=SURFACE_STYLE_USAGE(.BOTH.,#565);
#562=SURFACE_STYLE_USAGE(.BOTH.,#566);
#563=SURFACE_STYLE_RENDERING_WITH_PROPERTIES($,#573,(#564));
#564=SURFACE_STYLE_TRANSPARENT(0.);
#565=SURFACE_SIDE_STYLE('',(#567,#563));
#566=SURFACE_SIDE_STYLE('',(#568));
#567=SURFACE_STYLE_FILL_AREA(#569);
#568=SURFACE_STYLE_FILL_AREA(#570);
#569=FILL_AREA_STYLE('',(#571));
#570=FILL_AREA_STYLE('',(#572));
#571=FILL_AREA_STYLE_COLOUR('',#573);
#572=FILL_AREA_STYLE_COLOUR('',#574);
#573=COLOUR_RGB('',0.749019607843137,0.749019607843137,0.749019607843137);
#574=COLOUR_RGB('',1.,1.,0.);
ENDSEC;
END-ISO-10303-21;
