ISO-10303-21;
HEADER;
/* Generated by software containing ST-Developer
 * from STEP Tools, Inc. (www.steptools.com) 
 */

FILE_DESCRIPTION(
/* description */ (''),
/* implementation_level */ '2;1');

FILE_NAME(
/* name */ 'FL-100LF-W.stp',
/* time_stamp */ '2023-10-09T09:57:49+01:00',
/* author */ ('PaulJarvis'),
/* organization */ (''),
/* preprocessor_version */ 'ST-DEVELOPER v19.2',
/* originating_system */ 'Autodesk Inventor 2023',
/* authorisation */ '');

FILE_SCHEMA (('AUTOMOTIVE_DESIGN { 1 0 10303 214 3 1 1 }'));
ENDSEC;

DATA;
#10=MECHANICAL_DESIGN_GEOMETRIC_PRESENTATION_REPRESENTATION('',(#13),#649);
#11=SHAPE_REPRESENTATION_RELATIONSHIP('SRR','None',#656,#12);
#12=ADVANCED_BREP_SHAPE_REPRESENTATION('',(#14),#648);
#13=STYLED_ITEM('',(#665),#14);
#14=MANIFOLD_SOLID_BREP('Solid1',#340);
#15=FACE_BOUND('',#68,.T.);
#16=FACE_BOUND('',#71,.T.);
#17=FACE_BOUND('',#76,.T.);
#18=FACE_BOUND('',#80,.T.);
#19=FACE_BOUND('',#83,.T.);
#20=FACE_BOUND('',#86,.T.);
#21=PLANE('',#385);
#22=PLANE('',#390);
#23=PLANE('',#402);
#24=PLANE('',#407);
#25=PLANE('',#411);
#26=PLANE('',#415);
#27=TOROIDAL_SURFACE('',#377,57.1,0.5);
#28=TOROIDAL_SURFACE('',#387,56.1,0.5);
#29=TOROIDAL_SURFACE('',#392,62.,0.5);
#30=TOROIDAL_SURFACE('',#399,63.,0.5);
#31=TOROIDAL_SURFACE('',#418,65.,1.5);
#32=CYLINDRICAL_SURFACE('',#367,65.);
#33=CYLINDRICAL_SURFACE('',#374,65.);
#34=CYLINDRICAL_SURFACE('',#382,56.6);
#35=CYLINDRICAL_SURFACE('',#396,62.5);
#36=CYLINDRICAL_SURFACE('',#409,51.);
#37=CYLINDRICAL_SURFACE('',#413,49.3);
#38=CYLINDRICAL_SURFACE('',#417,51.1);
#39=FACE_OUTER_BOUND('',#61,.T.);
#40=FACE_OUTER_BOUND('',#62,.T.);
#41=FACE_OUTER_BOUND('',#63,.T.);
#42=FACE_OUTER_BOUND('',#64,.T.);
#43=FACE_OUTER_BOUND('',#65,.T.);
#44=FACE_OUTER_BOUND('',#66,.T.);
#45=FACE_OUTER_BOUND('',#67,.T.);
#46=FACE_OUTER_BOUND('',#69,.T.);
#47=FACE_OUTER_BOUND('',#70,.T.);
#48=FACE_OUTER_BOUND('',#72,.T.);
#49=FACE_OUTER_BOUND('',#73,.T.);
#50=FACE_OUTER_BOUND('',#74,.T.);
#51=FACE_OUTER_BOUND('',#75,.T.);
#52=FACE_OUTER_BOUND('',#77,.T.);
#53=FACE_OUTER_BOUND('',#78,.T.);
#54=FACE_OUTER_BOUND('',#79,.T.);
#55=FACE_OUTER_BOUND('',#81,.T.);
#56=FACE_OUTER_BOUND('',#82,.T.);
#57=FACE_OUTER_BOUND('',#84,.T.);
#58=FACE_OUTER_BOUND('',#85,.T.);
#59=FACE_OUTER_BOUND('',#87,.T.);
#60=FACE_OUTER_BOUND('',#88,.T.);
#61=EDGE_LOOP('',(#222,#223,#224,#225,#226));
#62=EDGE_LOOP('',(#227,#228,#229,#230,#231,#232));
#63=EDGE_LOOP('',(#233,#234,#235,#236,#237));
#64=EDGE_LOOP('',(#238,#239,#240,#241,#242,#243));
#65=EDGE_LOOP('',(#244,#245,#246,#247,#248));
#66=EDGE_LOOP('',(#249,#250,#251,#252,#253,#254));
#67=EDGE_LOOP('',(#255));
#68=EDGE_LOOP('',(#256));
#69=EDGE_LOOP('',(#257,#258,#259,#260,#261));
#70=EDGE_LOOP('',(#262));
#71=EDGE_LOOP('',(#263));
#72=EDGE_LOOP('',(#264,#265,#266,#267,#268));
#73=EDGE_LOOP('',(#269,#270,#271,#272,#273,#274));
#74=EDGE_LOOP('',(#275,#276,#277,#278,#279));
#75=EDGE_LOOP('',(#280));
#76=EDGE_LOOP('',(#281));
#77=EDGE_LOOP('',(#282,#283,#284,#285,#286));
#78=EDGE_LOOP('',(#287,#288,#289,#290,#291));
#79=EDGE_LOOP('',(#292));
#80=EDGE_LOOP('',(#293));
#81=EDGE_LOOP('',(#294,#295,#296,#297));
#82=EDGE_LOOP('',(#298));
#83=EDGE_LOOP('',(#299));
#84=EDGE_LOOP('',(#300,#301,#302,#303));
#85=EDGE_LOOP('',(#304));
#86=EDGE_LOOP('',(#305));
#87=EDGE_LOOP('',(#306,#307,#308,#309));
#88=EDGE_LOOP('',(#310,#311,#312,#313));
#89=LINE('',#554,#100);
#90=LINE('',#561,#101);
#91=LINE('',#566,#102);
#92=LINE('',#572,#103);
#93=LINE('',#586,#104);
#94=LINE('',#608,#105);
#95=LINE('',#620,#106);
#96=LINE('',#624,#107);
#97=LINE('',#630,#108);
#98=LINE('',#637,#109);
#99=LINE('',#643,#110);
#100=VECTOR('',#428,64.8527221600979);
#101=VECTOR('',#437,65.);
#102=VECTOR('',#442,64.8527221600979);
#103=VECTOR('',#449,65.);
#104=VECTOR('',#466,56.6);
#105=VECTOR('',#495,62.5);
#106=VECTOR('',#512,64.625);
#107=VECTOR('',#517,64.625);
#108=VECTOR('',#524,51.);
#109=VECTOR('',#533,49.3);
#110=VECTOR('',#542,51.1);
#111=CIRCLE('',#364,65.);
#112=CIRCLE('',#365,65.);
#113=CIRCLE('',#366,64.7054443201959);
#114=CIRCLE('',#368,65.);
#115=CIRCLE('',#369,65.);
#116=CIRCLE('',#371,64.7054443201959);
#117=CIRCLE('',#372,65.);
#118=CIRCLE('',#373,65.);
#119=CIRCLE('',#375,65.);
#120=CIRCLE('',#376,65.);
#121=CIRCLE('',#378,56.6);
#122=CIRCLE('',#379,56.6);
#123=CIRCLE('',#380,0.5);
#124=CIRCLE('',#381,57.1);
#125=CIRCLE('',#383,56.6);
#126=CIRCLE('',#384,56.6);
#127=CIRCLE('',#386,62.);
#128=CIRCLE('',#388,0.5);
#129=CIRCLE('',#389,56.1);
#130=CIRCLE('',#391,51.1);
#131=CIRCLE('',#393,0.5);
#132=CIRCLE('',#394,62.5);
#133=CIRCLE('',#395,62.5);
#134=CIRCLE('',#397,62.5);
#135=CIRCLE('',#398,62.5);
#136=CIRCLE('',#400,63.);
#137=CIRCLE('',#401,0.5);
#138=CIRCLE('',#403,64.25);
#139=CIRCLE('',#406,64.25);
#140=CIRCLE('',#408,51.);
#141=CIRCLE('',#410,51.);
#142=CIRCLE('',#412,49.3);
#143=CIRCLE('',#414,49.3);
#144=CIRCLE('',#416,51.1);
#145=CIRCLE('',#419,1.5);
#146=VERTEX_POINT('',#549);
#147=VERTEX_POINT('',#550);
#148=VERTEX_POINT('',#553);
#149=VERTEX_POINT('',#557);
#150=VERTEX_POINT('',#558);
#151=VERTEX_POINT('',#563);
#152=VERTEX_POINT('',#565);
#153=VERTEX_POINT('',#567);
#154=VERTEX_POINT('',#571);
#155=VERTEX_POINT('',#573);
#156=VERTEX_POINT('',#577);
#157=VERTEX_POINT('',#578);
#158=VERTEX_POINT('',#581);
#159=VERTEX_POINT('',#585);
#160=VERTEX_POINT('',#587);
#161=VERTEX_POINT('',#591);
#162=VERTEX_POINT('',#594);
#163=VERTEX_POINT('',#598);
#164=VERTEX_POINT('',#601);
#165=VERTEX_POINT('',#603);
#166=VERTEX_POINT('',#607);
#167=VERTEX_POINT('',#609);
#168=VERTEX_POINT('',#613);
#169=VERTEX_POINT('',#617);
#170=VERTEX_POINT('',#622);
#171=VERTEX_POINT('',#626);
#172=VERTEX_POINT('',#629);
#173=VERTEX_POINT('',#633);
#174=VERTEX_POINT('',#636);
#175=VERTEX_POINT('',#640);
#176=EDGE_CURVE('',#146,#147,#111,.T.);
#177=EDGE_CURVE('',#147,#146,#112,.T.);
#178=EDGE_CURVE('',#146,#148,#89,.T.);
#179=EDGE_CURVE('',#148,#148,#113,.T.);
#180=EDGE_CURVE('',#149,#150,#114,.T.);
#181=EDGE_CURVE('',#150,#149,#115,.T.);
#182=EDGE_CURVE('',#150,#147,#90,.T.);
#183=EDGE_CURVE('',#151,#151,#116,.T.);
#184=EDGE_CURVE('',#151,#152,#91,.T.);
#185=EDGE_CURVE('',#152,#153,#117,.T.);
#186=EDGE_CURVE('',#153,#152,#118,.T.);
#187=EDGE_CURVE('',#153,#154,#92,.T.);
#188=EDGE_CURVE('',#155,#154,#119,.T.);
#189=EDGE_CURVE('',#154,#155,#120,.T.);
#190=EDGE_CURVE('',#156,#157,#121,.T.);
#191=EDGE_CURVE('',#157,#156,#122,.T.);
#192=EDGE_CURVE('',#156,#158,#123,.T.);
#193=EDGE_CURVE('',#158,#158,#124,.T.);
#194=EDGE_CURVE('',#157,#159,#93,.T.);
#195=EDGE_CURVE('',#160,#159,#125,.T.);
#196=EDGE_CURVE('',#159,#160,#126,.T.);
#197=EDGE_CURVE('',#161,#161,#127,.T.);
#198=EDGE_CURVE('',#160,#162,#128,.T.);
#199=EDGE_CURVE('',#162,#162,#129,.T.);
#200=EDGE_CURVE('',#163,#163,#130,.T.);
#201=EDGE_CURVE('',#161,#164,#131,.T.);
#202=EDGE_CURVE('',#164,#165,#132,.T.);
#203=EDGE_CURVE('',#165,#164,#133,.T.);
#204=EDGE_CURVE('',#165,#166,#94,.T.);
#205=EDGE_CURVE('',#167,#166,#134,.T.);
#206=EDGE_CURVE('',#166,#167,#135,.T.);
#207=EDGE_CURVE('',#168,#168,#136,.T.);
#208=EDGE_CURVE('',#168,#167,#137,.T.);
#209=EDGE_CURVE('',#169,#169,#138,.T.);
#210=EDGE_CURVE('',#155,#169,#95,.T.);
#211=EDGE_CURVE('',#170,#170,#139,.T.);
#212=EDGE_CURVE('',#170,#149,#96,.T.);
#213=EDGE_CURVE('',#171,#171,#140,.T.);
#214=EDGE_CURVE('',#171,#172,#97,.T.);
#215=EDGE_CURVE('',#172,#172,#141,.T.);
#216=EDGE_CURVE('',#173,#173,#142,.T.);
#217=EDGE_CURVE('',#173,#174,#98,.T.);
#218=EDGE_CURVE('',#174,#174,#143,.T.);
#219=EDGE_CURVE('',#175,#175,#144,.T.);
#220=EDGE_CURVE('',#175,#163,#99,.T.);
#221=EDGE_CURVE('',#151,#148,#145,.T.);
#222=ORIENTED_EDGE('',*,*,#176,.T.);
#223=ORIENTED_EDGE('',*,*,#177,.T.);
#224=ORIENTED_EDGE('',*,*,#178,.T.);
#225=ORIENTED_EDGE('',*,*,#179,.T.);
#226=ORIENTED_EDGE('',*,*,#178,.F.);
#227=ORIENTED_EDGE('',*,*,#180,.F.);
#228=ORIENTED_EDGE('',*,*,#181,.F.);
#229=ORIENTED_EDGE('',*,*,#182,.T.);
#230=ORIENTED_EDGE('',*,*,#176,.F.);
#231=ORIENTED_EDGE('',*,*,#177,.F.);
#232=ORIENTED_EDGE('',*,*,#182,.F.);
#233=ORIENTED_EDGE('',*,*,#183,.T.);
#234=ORIENTED_EDGE('',*,*,#184,.T.);
#235=ORIENTED_EDGE('',*,*,#185,.T.);
#236=ORIENTED_EDGE('',*,*,#186,.T.);
#237=ORIENTED_EDGE('',*,*,#184,.F.);
#238=ORIENTED_EDGE('',*,*,#185,.F.);
#239=ORIENTED_EDGE('',*,*,#186,.F.);
#240=ORIENTED_EDGE('',*,*,#187,.T.);
#241=ORIENTED_EDGE('',*,*,#188,.F.);
#242=ORIENTED_EDGE('',*,*,#189,.F.);
#243=ORIENTED_EDGE('',*,*,#187,.F.);
#244=ORIENTED_EDGE('',*,*,#190,.T.);
#245=ORIENTED_EDGE('',*,*,#191,.T.);
#246=ORIENTED_EDGE('',*,*,#192,.T.);
#247=ORIENTED_EDGE('',*,*,#193,.T.);
#248=ORIENTED_EDGE('',*,*,#192,.F.);
#249=ORIENTED_EDGE('',*,*,#190,.F.);
#250=ORIENTED_EDGE('',*,*,#191,.F.);
#251=ORIENTED_EDGE('',*,*,#194,.T.);
#252=ORIENTED_EDGE('',*,*,#195,.F.);
#253=ORIENTED_EDGE('',*,*,#196,.F.);
#254=ORIENTED_EDGE('',*,*,#194,.F.);
#255=ORIENTED_EDGE('',*,*,#197,.F.);
#256=ORIENTED_EDGE('',*,*,#193,.F.);
#257=ORIENTED_EDGE('',*,*,#195,.T.);
#258=ORIENTED_EDGE('',*,*,#196,.T.);
#259=ORIENTED_EDGE('',*,*,#198,.T.);
#260=ORIENTED_EDGE('',*,*,#199,.T.);
#261=ORIENTED_EDGE('',*,*,#198,.F.);
#262=ORIENTED_EDGE('',*,*,#199,.F.);
#263=ORIENTED_EDGE('',*,*,#200,.T.);
#264=ORIENTED_EDGE('',*,*,#197,.T.);
#265=ORIENTED_EDGE('',*,*,#201,.T.);
#266=ORIENTED_EDGE('',*,*,#202,.T.);
#267=ORIENTED_EDGE('',*,*,#203,.T.);
#268=ORIENTED_EDGE('',*,*,#201,.F.);
#269=ORIENTED_EDGE('',*,*,#202,.F.);
#270=ORIENTED_EDGE('',*,*,#203,.F.);
#271=ORIENTED_EDGE('',*,*,#204,.T.);
#272=ORIENTED_EDGE('',*,*,#205,.F.);
#273=ORIENTED_EDGE('',*,*,#206,.F.);
#274=ORIENTED_EDGE('',*,*,#204,.F.);
#275=ORIENTED_EDGE('',*,*,#207,.T.);
#276=ORIENTED_EDGE('',*,*,#208,.T.);
#277=ORIENTED_EDGE('',*,*,#205,.T.);
#278=ORIENTED_EDGE('',*,*,#206,.T.);
#279=ORIENTED_EDGE('',*,*,#208,.F.);
#280=ORIENTED_EDGE('',*,*,#209,.F.);
#281=ORIENTED_EDGE('',*,*,#207,.F.);
#282=ORIENTED_EDGE('',*,*,#188,.T.);
#283=ORIENTED_EDGE('',*,*,#189,.T.);
#284=ORIENTED_EDGE('',*,*,#210,.T.);
#285=ORIENTED_EDGE('',*,*,#209,.T.);
#286=ORIENTED_EDGE('',*,*,#210,.F.);
#287=ORIENTED_EDGE('',*,*,#211,.T.);
#288=ORIENTED_EDGE('',*,*,#212,.T.);
#289=ORIENTED_EDGE('',*,*,#180,.T.);
#290=ORIENTED_EDGE('',*,*,#181,.T.);
#291=ORIENTED_EDGE('',*,*,#212,.F.);
#292=ORIENTED_EDGE('',*,*,#211,.F.);
#293=ORIENTED_EDGE('',*,*,#213,.F.);
#294=ORIENTED_EDGE('',*,*,#213,.T.);
#295=ORIENTED_EDGE('',*,*,#214,.T.);
#296=ORIENTED_EDGE('',*,*,#215,.F.);
#297=ORIENTED_EDGE('',*,*,#214,.F.);
#298=ORIENTED_EDGE('',*,*,#215,.T.);
#299=ORIENTED_EDGE('',*,*,#216,.F.);
#300=ORIENTED_EDGE('',*,*,#216,.T.);
#301=ORIENTED_EDGE('',*,*,#217,.T.);
#302=ORIENTED_EDGE('',*,*,#218,.F.);
#303=ORIENTED_EDGE('',*,*,#217,.F.);
#304=ORIENTED_EDGE('',*,*,#219,.F.);
#305=ORIENTED_EDGE('',*,*,#218,.T.);
#306=ORIENTED_EDGE('',*,*,#219,.T.);
#307=ORIENTED_EDGE('',*,*,#220,.T.);
#308=ORIENTED_EDGE('',*,*,#200,.F.);
#309=ORIENTED_EDGE('',*,*,#220,.F.);
#310=ORIENTED_EDGE('',*,*,#183,.F.);
#311=ORIENTED_EDGE('',*,*,#221,.T.);
#312=ORIENTED_EDGE('',*,*,#179,.F.);
#313=ORIENTED_EDGE('',*,*,#221,.F.);
#314=CONICAL_SURFACE('',#363,64.8527221600979,0.735984433113824);
#315=CONICAL_SURFACE('',#370,64.8527221600979,0.735984433113824);
#316=CONICAL_SURFACE('',#404,64.625,0.78539816339745);
#317=CONICAL_SURFACE('',#405,64.625,0.78539816339745);
#318=ADVANCED_FACE('',(#39),#314,.T.);
#319=ADVANCED_FACE('',(#40),#32,.T.);
#320=ADVANCED_FACE('',(#41),#315,.T.);
#321=ADVANCED_FACE('',(#42),#33,.T.);
#322=ADVANCED_FACE('',(#43),#27,.F.);
#323=ADVANCED_FACE('',(#44),#34,.T.);
#324=ADVANCED_FACE('',(#45,#15),#21,.T.);
#325=ADVANCED_FACE('',(#46),#28,.T.);
#326=ADVANCED_FACE('',(#47,#16),#22,.T.);
#327=ADVANCED_FACE('',(#48),#29,.F.);
#328=ADVANCED_FACE('',(#49),#35,.F.);
#329=ADVANCED_FACE('',(#50),#30,.T.);
#330=ADVANCED_FACE('',(#51,#17),#23,.T.);
#331=ADVANCED_FACE('',(#52),#316,.T.);
#332=ADVANCED_FACE('',(#53),#317,.T.);
#333=ADVANCED_FACE('',(#54,#18),#24,.T.);
#334=ADVANCED_FACE('',(#55),#36,.F.);
#335=ADVANCED_FACE('',(#56,#19),#25,.T.);
#336=ADVANCED_FACE('',(#57),#37,.F.);
#337=ADVANCED_FACE('',(#58,#20),#26,.T.);
#338=ADVANCED_FACE('',(#59),#38,.F.);
#339=ADVANCED_FACE('',(#60),#31,.F.);
#340=CLOSED_SHELL('',(#318,#319,#320,#321,#322,#323,#324,#325,#326,#327,
#328,#329,#330,#331,#332,#333,#334,#335,#336,#337,#338,#339));
#341=DERIVED_UNIT_ELEMENT(#344,1.);
#342=DERIVED_UNIT_ELEMENT(#651,-3.);
#343=DIMENSIONAL_EXPONENTS(0.,1.,0.,0.,0.,0.,0.);
#344=(
CONVERSION_BASED_UNIT('gram',#346)
MASS_UNIT()
NAMED_UNIT(#343)
);
#345=(
MASS_UNIT()
NAMED_UNIT(*)
SI_UNIT(.KILO.,.GRAM.)
);
#346=MASS_MEASURE_WITH_UNIT(MASS_MEASURE(0.001),#345);
#347=DERIVED_UNIT((#341,#342));
#348=MEASURE_REPRESENTATION_ITEM('density measure',
POSITIVE_RATIO_MEASURE(8.),#347);
#349=PROPERTY_DEFINITION_REPRESENTATION(#354,#351);
#350=PROPERTY_DEFINITION_REPRESENTATION(#355,#352);
#351=REPRESENTATION('material name',(#353),#648);
#352=REPRESENTATION('density',(#348),#648);
#353=DESCRIPTIVE_REPRESENTATION_ITEM('Stainless Steel, Austenitic',
'Stainless Steel, Austenitic');
#354=PROPERTY_DEFINITION('material property','material name',#658);
#355=PROPERTY_DEFINITION('material property','density of part',#658);
#356=DATE_TIME_ROLE('creation_date');
#357=APPLIED_DATE_AND_TIME_ASSIGNMENT(#358,#356,(#658));
#358=DATE_AND_TIME(#359,#360);
#359=CALENDAR_DATE(2014,31,7);
#360=LOCAL_TIME(0,0,0.,#361);
#361=COORDINATED_UNIVERSAL_TIME_OFFSET(0,0,.BEHIND.);
#362=AXIS2_PLACEMENT_3D('',#547,#420,#421);
#363=AXIS2_PLACEMENT_3D('',#548,#422,#423);
#364=AXIS2_PLACEMENT_3D('',#551,#424,#425);
#365=AXIS2_PLACEMENT_3D('',#552,#426,#427);
#366=AXIS2_PLACEMENT_3D('',#555,#429,#430);
#367=AXIS2_PLACEMENT_3D('',#556,#431,#432);
#368=AXIS2_PLACEMENT_3D('',#559,#433,#434);
#369=AXIS2_PLACEMENT_3D('',#560,#435,#436);
#370=AXIS2_PLACEMENT_3D('',#562,#438,#439);
#371=AXIS2_PLACEMENT_3D('',#564,#440,#441);
#372=AXIS2_PLACEMENT_3D('',#568,#443,#444);
#373=AXIS2_PLACEMENT_3D('',#569,#445,#446);
#374=AXIS2_PLACEMENT_3D('',#570,#447,#448);
#375=AXIS2_PLACEMENT_3D('',#574,#450,#451);
#376=AXIS2_PLACEMENT_3D('',#575,#452,#453);
#377=AXIS2_PLACEMENT_3D('',#576,#454,#455);
#378=AXIS2_PLACEMENT_3D('',#579,#456,#457);
#379=AXIS2_PLACEMENT_3D('',#580,#458,#459);
#380=AXIS2_PLACEMENT_3D('',#582,#460,#461);
#381=AXIS2_PLACEMENT_3D('',#583,#462,#463);
#382=AXIS2_PLACEMENT_3D('',#584,#464,#465);
#383=AXIS2_PLACEMENT_3D('',#588,#467,#468);
#384=AXIS2_PLACEMENT_3D('',#589,#469,#470);
#385=AXIS2_PLACEMENT_3D('',#590,#471,#472);
#386=AXIS2_PLACEMENT_3D('',#592,#473,#474);
#387=AXIS2_PLACEMENT_3D('',#593,#475,#476);
#388=AXIS2_PLACEMENT_3D('',#595,#477,#478);
#389=AXIS2_PLACEMENT_3D('',#596,#479,#480);
#390=AXIS2_PLACEMENT_3D('',#597,#481,#482);
#391=AXIS2_PLACEMENT_3D('',#599,#483,#484);
#392=AXIS2_PLACEMENT_3D('',#600,#485,#486);
#393=AXIS2_PLACEMENT_3D('',#602,#487,#488);
#394=AXIS2_PLACEMENT_3D('',#604,#489,#490);
#395=AXIS2_PLACEMENT_3D('',#605,#491,#492);
#396=AXIS2_PLACEMENT_3D('',#606,#493,#494);
#397=AXIS2_PLACEMENT_3D('',#610,#496,#497);
#398=AXIS2_PLACEMENT_3D('',#611,#498,#499);
#399=AXIS2_PLACEMENT_3D('',#612,#500,#501);
#400=AXIS2_PLACEMENT_3D('',#614,#502,#503);
#401=AXIS2_PLACEMENT_3D('',#615,#504,#505);
#402=AXIS2_PLACEMENT_3D('',#616,#506,#507);
#403=AXIS2_PLACEMENT_3D('',#618,#508,#509);
#404=AXIS2_PLACEMENT_3D('',#619,#510,#511);
#405=AXIS2_PLACEMENT_3D('',#621,#513,#514);
#406=AXIS2_PLACEMENT_3D('',#623,#515,#516);
#407=AXIS2_PLACEMENT_3D('',#625,#518,#519);
#408=AXIS2_PLACEMENT_3D('',#627,#520,#521);
#409=AXIS2_PLACEMENT_3D('',#628,#522,#523);
#410=AXIS2_PLACEMENT_3D('',#631,#525,#526);
#411=AXIS2_PLACEMENT_3D('',#632,#527,#528);
#412=AXIS2_PLACEMENT_3D('',#634,#529,#530);
#413=AXIS2_PLACEMENT_3D('',#635,#531,#532);
#414=AXIS2_PLACEMENT_3D('',#638,#534,#535);
#415=AXIS2_PLACEMENT_3D('',#639,#536,#537);
#416=AXIS2_PLACEMENT_3D('',#641,#538,#539);
#417=AXIS2_PLACEMENT_3D('',#642,#540,#541);
#418=AXIS2_PLACEMENT_3D('',#644,#543,#544);
#419=AXIS2_PLACEMENT_3D('',#645,#545,#546);
#420=DIRECTION('axis',(0.,0.,1.));
#421=DIRECTION('refdir',(1.,0.,0.));
#422=DIRECTION('center_axis',(1.,0.,0.));
#423=DIRECTION('ref_axis',(0.,0.,-1.));
#424=DIRECTION('center_axis',(-1.,0.,0.));
#425=DIRECTION('ref_axis',(0.,0.,-1.));
#426=DIRECTION('center_axis',(-1.,0.,0.));
#427=DIRECTION('ref_axis',(0.,0.,-1.));
#428=DIRECTION('',(-0.741170245850003,8.2212635406786E-17,-0.671317113342603));
#429=DIRECTION('center_axis',(1.,0.,0.));
#430=DIRECTION('ref_axis',(0.,0.,-1.));
#431=DIRECTION('center_axis',(1.,0.,0.));
#432=DIRECTION('ref_axis',(0.,0.,1.));
#433=DIRECTION('center_axis',(1.,0.,0.));
#434=DIRECTION('ref_axis',(0.,0.,-1.));
#435=DIRECTION('center_axis',(1.,0.,0.));
#436=DIRECTION('ref_axis',(0.,0.,-1.));
#437=DIRECTION('',(-1.,0.,0.));
#438=DIRECTION('center_axis',(-1.,0.,0.));
#439=DIRECTION('ref_axis',(0.,0.,-1.));
#440=DIRECTION('center_axis',(-1.,0.,0.));
#441=DIRECTION('ref_axis',(0.,0.,-1.));
#442=DIRECTION('',(-0.741170245850003,-8.2212635406786E-17,0.671317113342603));
#443=DIRECTION('center_axis',(1.,0.,0.));
#444=DIRECTION('ref_axis',(0.,0.,-1.));
#445=DIRECTION('center_axis',(1.,0.,0.));
#446=DIRECTION('ref_axis',(0.,0.,-1.));
#447=DIRECTION('center_axis',(1.,0.,0.));
#448=DIRECTION('ref_axis',(0.,0.,1.));
#449=DIRECTION('',(-1.,0.,0.));
#450=DIRECTION('center_axis',(-1.,0.,0.));
#451=DIRECTION('ref_axis',(0.,0.,-1.));
#452=DIRECTION('center_axis',(-1.,0.,0.));
#453=DIRECTION('ref_axis',(0.,0.,-1.));
#454=DIRECTION('center_axis',(1.,0.,0.));
#455=DIRECTION('ref_axis',(0.,0.,-1.));
#456=DIRECTION('center_axis',(1.,0.,0.));
#457=DIRECTION('ref_axis',(0.,0.,-1.));
#458=DIRECTION('center_axis',(1.,0.,0.));
#459=DIRECTION('ref_axis',(0.,0.,-1.));
#460=DIRECTION('center_axis',(0.,-1.,-1.22464679914735E-16));
#461=DIRECTION('ref_axis',(0.,-1.22464679914735E-16,1.));
#462=DIRECTION('center_axis',(-1.,0.,0.));
#463=DIRECTION('ref_axis',(0.,0.,-1.));
#464=DIRECTION('center_axis',(1.,0.,0.));
#465=DIRECTION('ref_axis',(0.,0.,1.));
#466=DIRECTION('',(-1.,0.,0.));
#467=DIRECTION('center_axis',(-1.,0.,0.));
#468=DIRECTION('ref_axis',(0.,0.,-1.));
#469=DIRECTION('center_axis',(-1.,0.,0.));
#470=DIRECTION('ref_axis',(0.,0.,-1.));
#471=DIRECTION('center_axis',(-1.,0.,0.));
#472=DIRECTION('ref_axis',(0.,0.,1.));
#473=DIRECTION('center_axis',(1.,0.,0.));
#474=DIRECTION('ref_axis',(0.,0.,-1.));
#475=DIRECTION('center_axis',(1.,0.,0.));
#476=DIRECTION('ref_axis',(0.,0.,-1.));
#477=DIRECTION('center_axis',(0.,-1.,-1.22464679914735E-16));
#478=DIRECTION('ref_axis',(0.,-1.22464679914735E-16,1.));
#479=DIRECTION('center_axis',(1.,0.,0.));
#480=DIRECTION('ref_axis',(0.,0.,-1.));
#481=DIRECTION('center_axis',(-1.,0.,0.));
#482=DIRECTION('ref_axis',(0.,0.,1.));
#483=DIRECTION('center_axis',(1.,0.,0.));
#484=DIRECTION('ref_axis',(0.,0.,-1.));
#485=DIRECTION('center_axis',(1.,0.,0.));
#486=DIRECTION('ref_axis',(0.,0.,-1.));
#487=DIRECTION('center_axis',(0.,-1.,-1.22464679914735E-16));
#488=DIRECTION('ref_axis',(0.,-1.22464679914735E-16,1.));
#489=DIRECTION('center_axis',(-1.,0.,0.));
#490=DIRECTION('ref_axis',(0.,0.,-1.));
#491=DIRECTION('center_axis',(-1.,0.,0.));
#492=DIRECTION('ref_axis',(0.,0.,-1.));
#493=DIRECTION('center_axis',(1.,0.,0.));
#494=DIRECTION('ref_axis',(0.,0.,1.));
#495=DIRECTION('',(-1.,0.,0.));
#496=DIRECTION('center_axis',(1.,0.,0.));
#497=DIRECTION('ref_axis',(0.,0.,-1.));
#498=DIRECTION('center_axis',(1.,0.,0.));
#499=DIRECTION('ref_axis',(0.,0.,-1.));
#500=DIRECTION('center_axis',(1.,0.,0.));
#501=DIRECTION('ref_axis',(0.,0.,-1.));
#502=DIRECTION('center_axis',(-1.,0.,0.));
#503=DIRECTION('ref_axis',(0.,0.,-1.));
#504=DIRECTION('center_axis',(0.,-1.,-1.22464679914735E-16));
#505=DIRECTION('ref_axis',(0.,-1.22464679914735E-16,1.));
#506=DIRECTION('center_axis',(-1.,0.,0.));
#507=DIRECTION('ref_axis',(0.,0.,1.));
#508=DIRECTION('center_axis',(1.,0.,0.));
#509=DIRECTION('ref_axis',(0.,0.,-1.));
#510=DIRECTION('center_axis',(1.,0.,0.));
#511=DIRECTION('ref_axis',(0.,0.,-1.));
#512=DIRECTION('',(-0.707106781186546,8.65956056235495E-17,-0.707106781186549));
#513=DIRECTION('center_axis',(-1.,0.,0.));
#514=DIRECTION('ref_axis',(0.,0.,-1.));
#515=DIRECTION('center_axis',(-1.,0.,0.));
#516=DIRECTION('ref_axis',(0.,0.,-1.));
#517=DIRECTION('',(-0.707106781186547,-8.65956056235494E-17,0.707106781186548));
#518=DIRECTION('center_axis',(1.,0.,0.));
#519=DIRECTION('ref_axis',(0.,0.,-1.));
#520=DIRECTION('center_axis',(1.,0.,0.));
#521=DIRECTION('ref_axis',(0.,0.,-1.));
#522=DIRECTION('center_axis',(1.,0.,0.));
#523=DIRECTION('ref_axis',(0.,0.,1.));
#524=DIRECTION('',(-1.,0.,0.));
#525=DIRECTION('center_axis',(1.,0.,0.));
#526=DIRECTION('ref_axis',(0.,0.,-1.));
#527=DIRECTION('center_axis',(1.,0.,0.));
#528=DIRECTION('ref_axis',(0.,0.,-1.));
#529=DIRECTION('center_axis',(1.,0.,0.));
#530=DIRECTION('ref_axis',(0.,0.,-1.));
#531=DIRECTION('center_axis',(1.,0.,0.));
#532=DIRECTION('ref_axis',(0.,0.,1.));
#533=DIRECTION('',(-1.,0.,0.));
#534=DIRECTION('center_axis',(1.,0.,0.));
#535=DIRECTION('ref_axis',(0.,0.,-1.));
#536=DIRECTION('center_axis',(-1.,0.,0.));
#537=DIRECTION('ref_axis',(0.,0.,1.));
#538=DIRECTION('center_axis',(1.,0.,0.));
#539=DIRECTION('ref_axis',(0.,0.,-1.));
#540=DIRECTION('center_axis',(1.,0.,0.));
#541=DIRECTION('ref_axis',(0.,0.,1.));
#542=DIRECTION('',(-1.,0.,0.));
#543=DIRECTION('center_axis',(1.,0.,0.));
#544=DIRECTION('ref_axis',(0.,0.,-1.));
#545=DIRECTION('center_axis',(0.,-1.,-1.22464679914735E-16));
#546=DIRECTION('ref_axis',(0.,-1.22464679914735E-16,1.));
#547=CARTESIAN_POINT('',(0.,0.,0.));
#548=CARTESIAN_POINT('Origin',(-3.36660266666667,0.,0.));
#549=CARTESIAN_POINT('',(-3.204,7.9602041944578E-15,65.));
#550=CARTESIAN_POINT('',(-3.204,7.9602041944578E-15,-65.));
#551=CARTESIAN_POINT('Origin',(-3.204,0.,0.));
#552=CARTESIAN_POINT('Origin',(-3.204,0.,0.));
#553=CARTESIAN_POINT('',(-3.52920533333333,-7.92413152741351E-15,64.7054443201959));
#554=CARTESIAN_POINT('',(-3.36660266666667,-7.94216786093566E-15,64.8527221600979));
#555=CARTESIAN_POINT('Origin',(-3.52920533333333,0.,0.));
#556=CARTESIAN_POINT('Origin',(-1.75,0.,0.));
#557=CARTESIAN_POINT('',(-0.75,-7.9602041944578E-15,65.));
#558=CARTESIAN_POINT('',(-0.75,7.9602041944578E-15,-65.));
#559=CARTESIAN_POINT('Origin',(-0.75,0.,0.));
#560=CARTESIAN_POINT('Origin',(-0.75,0.,0.));
#561=CARTESIAN_POINT('',(-1.75,7.9602041944578E-15,-65.));
#562=CARTESIAN_POINT('Origin',(-6.63339733333333,0.,0.));
#563=CARTESIAN_POINT('',(-6.47079466666667,7.92413152741351E-15,64.7054443201959));
#564=CARTESIAN_POINT('Origin',(-6.47079466666667,0.,0.));
#565=CARTESIAN_POINT('',(-6.796,-7.9602041944578E-15,65.));
#566=CARTESIAN_POINT('',(-6.63339733333333,-7.94216786093566E-15,64.8527221600979));
#567=CARTESIAN_POINT('',(-6.796,7.9602041944578E-15,-65.));
#568=CARTESIAN_POINT('Origin',(-6.796,0.,0.));
#569=CARTESIAN_POINT('Origin',(-6.796,0.,0.));
#570=CARTESIAN_POINT('Origin',(-9.25,0.,0.));
#571=CARTESIAN_POINT('',(-11.25,7.9602041944578E-15,-65.));
#572=CARTESIAN_POINT('',(-9.25,7.9602041944578E-15,-65.));
#573=CARTESIAN_POINT('',(-11.25,7.9602041944578E-15,65.));
#574=CARTESIAN_POINT('Origin',(-11.25,0.,0.));
#575=CARTESIAN_POINT('Origin',(-11.25,0.,0.));
#576=CARTESIAN_POINT('Origin',(-10.5,0.,0.));
#577=CARTESIAN_POINT('',(-10.5,-6.93150088317402E-15,56.6));
#578=CARTESIAN_POINT('',(-10.5,6.93150088317402E-15,-56.6));
#579=CARTESIAN_POINT('Origin',(-10.5,0.,0.));
#580=CARTESIAN_POINT('Origin',(-10.5,0.,0.));
#581=CARTESIAN_POINT('',(-10.,6.99273322313139E-15,57.1));
#582=CARTESIAN_POINT('Origin',(-10.5,-6.99273322313139E-15,57.1));
#583=CARTESIAN_POINT('Origin',(-10.,0.,0.));
#584=CARTESIAN_POINT('Origin',(-11.,0.,0.));
#585=CARTESIAN_POINT('',(-11.5,6.93150088317402E-15,-56.6));
#586=CARTESIAN_POINT('',(-11.,6.93150088317402E-15,-56.6));
#587=CARTESIAN_POINT('',(-11.5,6.93150088317402E-15,56.6));
#588=CARTESIAN_POINT('Origin',(-11.5,0.,0.));
#589=CARTESIAN_POINT('Origin',(-11.5,0.,0.));
#590=CARTESIAN_POINT('Origin',(-10.,0.,62.5));
#591=CARTESIAN_POINT('',(-10.,-7.59281015471359E-15,62.));
#592=CARTESIAN_POINT('Origin',(-10.,0.,0.));
#593=CARTESIAN_POINT('Origin',(-11.5,0.,0.));
#594=CARTESIAN_POINT('',(-12.,-6.87026854321665E-15,56.1));
#595=CARTESIAN_POINT('Origin',(-11.5,-6.87026854321665E-15,56.1));
#596=CARTESIAN_POINT('Origin',(-12.,0.,0.));
#597=CARTESIAN_POINT('Origin',(-12.,0.,56.6));
#598=CARTESIAN_POINT('',(-12.,6.25794514364298E-15,-51.1));
#599=CARTESIAN_POINT('Origin',(-12.,0.,0.));
#600=CARTESIAN_POINT('Origin',(-10.5,0.,0.));
#601=CARTESIAN_POINT('',(-10.5,7.65404249467096E-15,62.5));
#602=CARTESIAN_POINT('Origin',(-10.5,-7.59281015471359E-15,62.));
#603=CARTESIAN_POINT('',(-10.5,7.65404249467096E-15,-62.5));
#604=CARTESIAN_POINT('Origin',(-10.5,0.,0.));
#605=CARTESIAN_POINT('Origin',(-10.5,0.,0.));
#606=CARTESIAN_POINT('Origin',(-11.,0.,0.));
#607=CARTESIAN_POINT('',(-11.5,7.65404249467096E-15,-62.5));
#608=CARTESIAN_POINT('',(-11.,7.65404249467096E-15,-62.5));
#609=CARTESIAN_POINT('',(-11.5,-7.65404249467096E-15,62.5));
#610=CARTESIAN_POINT('Origin',(-11.5,0.,0.));
#611=CARTESIAN_POINT('Origin',(-11.5,0.,0.));
#612=CARTESIAN_POINT('Origin',(-11.5,0.,0.));
#613=CARTESIAN_POINT('',(-12.,7.71527483462833E-15,63.));
#614=CARTESIAN_POINT('Origin',(-12.,0.,0.));
#615=CARTESIAN_POINT('Origin',(-11.5,-7.71527483462833E-15,63.));
#616=CARTESIAN_POINT('Origin',(-12.,0.,65.));
#617=CARTESIAN_POINT('',(-12.,-7.86835568452174E-15,64.25));
#618=CARTESIAN_POINT('Origin',(-12.,0.,0.));
#619=CARTESIAN_POINT('Origin',(-11.625,0.,0.));
#620=CARTESIAN_POINT('',(-11.625,-7.91427993948977E-15,64.625));
#621=CARTESIAN_POINT('Origin',(-0.375,0.,0.));
#622=CARTESIAN_POINT('',(0.,7.86835568452174E-15,64.25));
#623=CARTESIAN_POINT('Origin',(0.,0.,0.));
#624=CARTESIAN_POINT('',(-0.375,-7.91427993948977E-15,64.625));
#625=CARTESIAN_POINT('Origin',(-1.97215226305253E-30,0.,51.));
#626=CARTESIAN_POINT('',(0.,6.2456986756515E-15,-51.));
#627=CARTESIAN_POINT('Origin',(-1.97215226305253E-30,0.,0.));
#628=CARTESIAN_POINT('Origin',(-2.25,0.,0.));
#629=CARTESIAN_POINT('',(-4.5,6.2456986756515E-15,-51.));
#630=CARTESIAN_POINT('',(-2.25,6.2456986756515E-15,-51.));
#631=CARTESIAN_POINT('Origin',(-4.5,0.,0.));
#632=CARTESIAN_POINT('Origin',(-4.5,0.,49.3));
#633=CARTESIAN_POINT('',(-4.5,6.03750871979645E-15,-49.3));
#634=CARTESIAN_POINT('Origin',(-4.5,0.,0.));
#635=CARTESIAN_POINT('Origin',(-5.55,0.,0.));
#636=CARTESIAN_POINT('',(-6.6,6.03750871979645E-15,-49.3));
#637=CARTESIAN_POINT('',(-5.55,6.03750871979645E-15,-49.3));
#638=CARTESIAN_POINT('Origin',(-6.6,0.,0.));
#639=CARTESIAN_POINT('Origin',(-6.6,0.,51.1));
#640=CARTESIAN_POINT('',(-6.6,6.25794514364298E-15,-51.1));
#641=CARTESIAN_POINT('Origin',(-6.6,0.,0.));
#642=CARTESIAN_POINT('Origin',(-9.3,0.,0.));
#643=CARTESIAN_POINT('',(-9.3,6.25794514364298E-15,-51.1));
#644=CARTESIAN_POINT('Origin',(-5.,0.,0.));
#645=CARTESIAN_POINT('Origin',(-5.,-7.9602041944578E-15,65.));
#646=UNCERTAINTY_MEASURE_WITH_UNIT(LENGTH_MEASURE(0.01),#650,
'DISTANCE_ACCURACY_VALUE',
'Maximum model space distance between geometric entities at asserted c
onnectivities');
#647=UNCERTAINTY_MEASURE_WITH_UNIT(LENGTH_MEASURE(0.01),#650,
'DISTANCE_ACCURACY_VALUE',
'Maximum model space distance between geometric entities at asserted c
onnectivities');
#648=(
GEOMETRIC_REPRESENTATION_CONTEXT(3)
GLOBAL_UNCERTAINTY_ASSIGNED_CONTEXT((#646))
GLOBAL_UNIT_ASSIGNED_CONTEXT((#650,#652,#653))
REPRESENTATION_CONTEXT('','3D')
);
#649=(
GEOMETRIC_REPRESENTATION_CONTEXT(3)
GLOBAL_UNCERTAINTY_ASSIGNED_CONTEXT((#647))
GLOBAL_UNIT_ASSIGNED_CONTEXT((#650,#652,#653))
REPRESENTATION_CONTEXT('','3D')
);
#650=(
LENGTH_UNIT()
NAMED_UNIT(*)
SI_UNIT(.MILLI.,.METRE.)
);
#651=(
LENGTH_UNIT()
NAMED_UNIT(*)
SI_UNIT(.CENTI.,.METRE.)
);
#652=(
NAMED_UNIT(*)
PLANE_ANGLE_UNIT()
SI_UNIT($,.RADIAN.)
);
#653=(
NAMED_UNIT(*)
SI_UNIT($,.STERADIAN.)
SOLID_ANGLE_UNIT()
);
#654=SHAPE_DEFINITION_REPRESENTATION(#655,#656);
#655=PRODUCT_DEFINITION_SHAPE('',$,#658);
#656=SHAPE_REPRESENTATION('',(#362),#648);
#657=PRODUCT_DEFINITION_CONTEXT('part definition',#662,'design');
#658=PRODUCT_DEFINITION('FL-100LF-W','FL-100LF-W',#659,#657);
#659=PRODUCT_DEFINITION_FORMATION('',$,#664);
#660=PRODUCT_RELATED_PRODUCT_CATEGORY('FL-100LF-W','FL-100LF-W',(#664));
#661=APPLICATION_PROTOCOL_DEFINITION('international standard',
'automotive_design',2009,#662);
#662=APPLICATION_CONTEXT(
'Core Data for Automotive Mechanical Design Process');
#663=PRODUCT_CONTEXT('part definition',#662,'mechanical');
#664=PRODUCT('FL-100LF-W','FL-100LF-W',$,(#663));
#665=PRESENTATION_STYLE_ASSIGNMENT((#666));
#666=SURFACE_STYLE_USAGE(.BOTH.,#669);
#667=SURFACE_STYLE_RENDERING_WITH_PROPERTIES($,#673,(#668));
#668=SURFACE_STYLE_TRANSPARENT(0.);
#669=SURFACE_SIDE_STYLE('',(#670,#667));
#670=SURFACE_STYLE_FILL_AREA(#671);
#671=FILL_AREA_STYLE('',(#672));
#672=FILL_AREA_STYLE_COLOUR('',#673);
#673=COLOUR_RGB('',0.745098039215686,0.737254901960784,0.729411764705882);
ENDSEC;
END-ISO-10303-21;
