ISO-10303-21;
HEADER;
/* Generated by software containing ST-Developer
 * from STEP Tools, Inc. (www.steptools.com) 
 */

FILE_DESCRIPTION(
/* description */ (''),
/* implementation_level */ '2;1');

FILE_NAME(
/* name */ 'VG50.stp',
/* time_stamp */ '2024-01-09T08:10:13Z',
/* author */ ('PaulJarvis'),
/* organization */ (''),
/* preprocessor_version */ 'ST-DEVELOPER v19.2',
/* originating_system */ 'Autodesk Inventor 2023',
/* authorisation */ '');

FILE_SCHEMA (('AUTOMOTIVE_DESIGN { 1 0 10303 214 3 1 1 }'));
ENDSEC;

DATA;
#10=MECHANICAL_DESIGN_GEOMETRIC_PRESENTATION_REPRESENTATION('',(#13),#184);
#11=SHAPE_REPRESENTATION_RELATIONSHIP('SRR','None',#191,#12);
#12=ADVANCED_BREP_SHAPE_REPRESENTATION('',(#14),#183);
#13=STYLED_ITEM('',(#200),#14);
#14=MANIFOLD_SOLID_BREP('Solid1',#93);
#15=FACE_BOUND('',#30,.T.);
#16=FACE_BOUND('',#33,.T.);
#17=PLANE('',#121);
#18=PLANE('',#125);
#19=CYLINDRICAL_SURFACE('',#119,27.813);
#20=CYLINDRICAL_SURFACE('',#127,30.7975);
#21=FACE_OUTER_BOUND('',#27,.T.);
#22=FACE_OUTER_BOUND('',#28,.T.);
#23=FACE_OUTER_BOUND('',#29,.T.);
#24=FACE_OUTER_BOUND('',#31,.T.);
#25=FACE_OUTER_BOUND('',#32,.T.);
#26=FACE_OUTER_BOUND('',#34,.T.);
#27=EDGE_LOOP('',(#65,#66,#67,#68));
#28=EDGE_LOOP('',(#69,#70,#71,#72));
#29=EDGE_LOOP('',(#73));
#30=EDGE_LOOP('',(#74));
#31=EDGE_LOOP('',(#75,#76,#77,#78));
#32=EDGE_LOOP('',(#79));
#33=EDGE_LOOP('',(#80));
#34=EDGE_LOOP('',(#81,#82,#83,#84));
#35=LINE('',#163,#39);
#36=LINE('',#167,#40);
#37=LINE('',#175,#41);
#38=LINE('',#180,#42);
#39=VECTOR('',#134,28.3205);
#40=VECTOR('',#139,27.813);
#41=VECTOR('',#150,28.3205);
#42=VECTOR('',#157,30.7975);
#43=CIRCLE('',#117,28.828);
#44=CIRCLE('',#118,27.813);
#45=CIRCLE('',#120,27.813);
#46=CIRCLE('',#122,30.7975);
#47=CIRCLE('',#124,28.828);
#48=CIRCLE('',#126,30.7975);
#49=VERTEX_POINT('',#160);
#50=VERTEX_POINT('',#162);
#51=VERTEX_POINT('',#166);
#52=VERTEX_POINT('',#170);
#53=VERTEX_POINT('',#173);
#54=VERTEX_POINT('',#177);
#55=EDGE_CURVE('',#49,#49,#43,.T.);
#56=EDGE_CURVE('',#49,#50,#35,.T.);
#57=EDGE_CURVE('',#50,#50,#44,.T.);
#58=EDGE_CURVE('',#50,#51,#36,.T.);
#59=EDGE_CURVE('',#51,#51,#45,.T.);
#60=EDGE_CURVE('',#52,#52,#46,.T.);
#61=EDGE_CURVE('',#53,#53,#47,.T.);
#62=EDGE_CURVE('',#53,#51,#37,.T.);
#63=EDGE_CURVE('',#54,#54,#48,.T.);
#64=EDGE_CURVE('',#54,#52,#38,.T.);
#65=ORIENTED_EDGE('',*,*,#55,.T.);
#66=ORIENTED_EDGE('',*,*,#56,.T.);
#67=ORIENTED_EDGE('',*,*,#57,.T.);
#68=ORIENTED_EDGE('',*,*,#56,.F.);
#69=ORIENTED_EDGE('',*,*,#57,.F.);
#70=ORIENTED_EDGE('',*,*,#58,.T.);
#71=ORIENTED_EDGE('',*,*,#59,.F.);
#72=ORIENTED_EDGE('',*,*,#58,.F.);
#73=ORIENTED_EDGE('',*,*,#60,.T.);
#74=ORIENTED_EDGE('',*,*,#55,.F.);
#75=ORIENTED_EDGE('',*,*,#61,.T.);
#76=ORIENTED_EDGE('',*,*,#62,.T.);
#77=ORIENTED_EDGE('',*,*,#59,.T.);
#78=ORIENTED_EDGE('',*,*,#62,.F.);
#79=ORIENTED_EDGE('',*,*,#63,.T.);
#80=ORIENTED_EDGE('',*,*,#61,.F.);
#81=ORIENTED_EDGE('',*,*,#63,.F.);
#82=ORIENTED_EDGE('',*,*,#64,.T.);
#83=ORIENTED_EDGE('',*,*,#60,.F.);
#84=ORIENTED_EDGE('',*,*,#64,.F.);
#85=CONICAL_SURFACE('',#116,28.3205,1.21256561327531);
#86=CONICAL_SURFACE('',#123,28.3205,1.21256561327531);
#87=ADVANCED_FACE('',(#21),#85,.F.);
#88=ADVANCED_FACE('',(#22),#19,.F.);
#89=ADVANCED_FACE('',(#23,#15),#17,.F.);
#90=ADVANCED_FACE('',(#24),#86,.F.);
#91=ADVANCED_FACE('',(#25,#16),#18,.T.);
#92=ADVANCED_FACE('',(#26),#20,.T.);
#93=CLOSED_SHELL('',(#87,#88,#89,#90,#91,#92));
#94=DERIVED_UNIT_ELEMENT(#97,1.);
#95=DERIVED_UNIT_ELEMENT(#186,-3.);
#96=DIMENSIONAL_EXPONENTS(0.,1.,0.,0.,0.,0.,0.);
#97=(
CONVERSION_BASED_UNIT('gram',#99)
MASS_UNIT()
NAMED_UNIT(#96)
);
#98=(
MASS_UNIT()
NAMED_UNIT(*)
SI_UNIT(.KILO.,.GRAM.)
);
#99=MASS_MEASURE_WITH_UNIT(MASS_MEASURE(0.001),#98);
#100=DERIVED_UNIT((#94,#95));
#101=MEASURE_REPRESENTATION_ITEM('density measure',
POSITIVE_RATIO_MEASURE(1.2),#100);
#102=PROPERTY_DEFINITION_REPRESENTATION(#107,#104);
#103=PROPERTY_DEFINITION_REPRESENTATION(#108,#105);
#104=REPRESENTATION('material name',(#106),#183);
#105=REPRESENTATION('density',(#101),#183);
#106=DESCRIPTIVE_REPRESENTATION_ITEM('Rubber, Nitrile',
'Rubber, Nitrile');
#107=PROPERTY_DEFINITION('material property','material name',#193);
#108=PROPERTY_DEFINITION('material property','density of part',#193);
#109=DATE_TIME_ROLE('creation_date');
#110=APPLIED_DATE_AND_TIME_ASSIGNMENT(#111,#109,(#193));
#111=DATE_AND_TIME(#112,#113);
#112=CALENDAR_DATE(2015,17,4);
#113=LOCAL_TIME(0,0,0.,#114);
#114=COORDINATED_UNIVERSAL_TIME_OFFSET(0,0,.BEHIND.);
#115=AXIS2_PLACEMENT_3D('',#158,#128,#129);
#116=AXIS2_PLACEMENT_3D('',#159,#130,#131);
#117=AXIS2_PLACEMENT_3D('',#161,#132,#133);
#118=AXIS2_PLACEMENT_3D('',#164,#135,#136);
#119=AXIS2_PLACEMENT_3D('',#165,#137,#138);
#120=AXIS2_PLACEMENT_3D('',#168,#140,#141);
#121=AXIS2_PLACEMENT_3D('',#169,#142,#143);
#122=AXIS2_PLACEMENT_3D('',#171,#144,#145);
#123=AXIS2_PLACEMENT_3D('',#172,#146,#147);
#124=AXIS2_PLACEMENT_3D('',#174,#148,#149);
#125=AXIS2_PLACEMENT_3D('',#176,#151,#152);
#126=AXIS2_PLACEMENT_3D('',#178,#153,#154);
#127=AXIS2_PLACEMENT_3D('',#179,#155,#156);
#128=DIRECTION('axis',(0.,0.,1.));
#129=DIRECTION('refdir',(1.,0.,0.));
#130=DIRECTION('center_axis',(0.,0.,-1.));
#131=DIRECTION('ref_axis',(-1.,0.,0.));
#132=DIRECTION('center_axis',(0.,0.,-1.));
#133=DIRECTION('ref_axis',(-1.,0.,0.));
#134=DIRECTION('',(-0.936518632537621,1.14690454567905E-16,0.350617813166794));
#135=DIRECTION('center_axis',(0.,0.,1.));
#136=DIRECTION('ref_axis',(-1.,0.,0.));
#137=DIRECTION('center_axis',(0.,0.,1.));
#138=DIRECTION('ref_axis',(-1.,0.,0.));
#139=DIRECTION('',(0.,0.,1.));
#140=DIRECTION('center_axis',(0.,0.,-1.));
#141=DIRECTION('ref_axis',(-1.,0.,0.));
#142=DIRECTION('center_axis',(0.,0.,1.));
#143=DIRECTION('ref_axis',(1.,0.,0.));
#144=DIRECTION('center_axis',(0.,0.,-1.));
#145=DIRECTION('ref_axis',(-1.,0.,0.));
#146=DIRECTION('center_axis',(0.,0.,1.));
#147=DIRECTION('ref_axis',(-1.,0.,0.));
#148=DIRECTION('center_axis',(0.,0.,1.));
#149=DIRECTION('ref_axis',(-1.,0.,0.));
#150=DIRECTION('',(-0.936518632537621,-1.14690454567905E-16,-0.350617813166793));
#151=DIRECTION('center_axis',(0.,0.,1.));
#152=DIRECTION('ref_axis',(1.,0.,0.));
#153=DIRECTION('center_axis',(0.,0.,1.));
#154=DIRECTION('ref_axis',(-1.,0.,0.));
#155=DIRECTION('center_axis',(0.,0.,1.));
#156=DIRECTION('ref_axis',(-1.,0.,0.));
#157=DIRECTION('',(0.,0.,-1.));
#158=CARTESIAN_POINT('',(0.,0.,0.));
#159=CARTESIAN_POINT('Origin',(0.,0.,0.19));
#160=CARTESIAN_POINT('',(28.828,-3.53041179258199E-15,0.));
#161=CARTESIAN_POINT('Origin',(0.,0.,0.));
#162=CARTESIAN_POINT('',(27.813,3.40611014246853E-15,0.38));
#163=CARTESIAN_POINT('',(28.3205,-3.46826096752526E-15,0.19));
#164=CARTESIAN_POINT('Origin',(0.,0.,0.38));
#165=CARTESIAN_POINT('Origin',(0.,0.,0.));
#166=CARTESIAN_POINT('',(27.813,-3.40611014246853E-15,2.668));
#167=CARTESIAN_POINT('',(27.813,3.40611014246853E-15,0.));
#168=CARTESIAN_POINT('Origin',(0.,0.,2.668));
#169=CARTESIAN_POINT('Origin',(-2.23692066704308E-15,4.80655042184228E-16,
0.));
#170=CARTESIAN_POINT('',(30.7975,3.77160597967406E-15,0.));
#171=CARTESIAN_POINT('Origin',(0.,0.,0.));
#172=CARTESIAN_POINT('Origin',(0.,0.,2.858));
#173=CARTESIAN_POINT('',(28.828,3.53041179258199E-15,3.048));
#174=CARTESIAN_POINT('Origin',(0.,0.,3.048));
#175=CARTESIAN_POINT('',(28.3205,3.46826096752526E-15,2.858));
#176=CARTESIAN_POINT('Origin',(-2.23692066704308E-15,4.80655042184228E-16,
3.048));
#177=CARTESIAN_POINT('',(30.7975,3.77160597967406E-15,3.048));
#178=CARTESIAN_POINT('Origin',(0.,0.,3.048));
#179=CARTESIAN_POINT('Origin',(0.,0.,0.));
#180=CARTESIAN_POINT('',(30.7975,3.77160597967406E-15,0.));
#181=UNCERTAINTY_MEASURE_WITH_UNIT(LENGTH_MEASURE(0.01),#185,
'DISTANCE_ACCURACY_VALUE',
'Maximum model space distance between geometric entities at asserted c
onnectivities');
#182=UNCERTAINTY_MEASURE_WITH_UNIT(LENGTH_MEASURE(0.01),#185,
'DISTANCE_ACCURACY_VALUE',
'Maximum model space distance between geometric entities at asserted c
onnectivities');
#183=(
GEOMETRIC_REPRESENTATION_CONTEXT(3)
GLOBAL_UNCERTAINTY_ASSIGNED_CONTEXT((#181))
GLOBAL_UNIT_ASSIGNED_CONTEXT((#185,#187,#188))
REPRESENTATION_CONTEXT('','3D')
);
#184=(
GEOMETRIC_REPRESENTATION_CONTEXT(3)
GLOBAL_UNCERTAINTY_ASSIGNED_CONTEXT((#182))
GLOBAL_UNIT_ASSIGNED_CONTEXT((#185,#187,#188))
REPRESENTATION_CONTEXT('','3D')
);
#185=(
LENGTH_UNIT()
NAMED_UNIT(*)
SI_UNIT(.MILLI.,.METRE.)
);
#186=(
LENGTH_UNIT()
NAMED_UNIT(*)
SI_UNIT(.CENTI.,.METRE.)
);
#187=(
NAMED_UNIT(*)
PLANE_ANGLE_UNIT()
SI_UNIT($,.RADIAN.)
);
#188=(
NAMED_UNIT(*)
SI_UNIT($,.STERADIAN.)
SOLID_ANGLE_UNIT()
);
#189=SHAPE_DEFINITION_REPRESENTATION(#190,#191);
#190=PRODUCT_DEFINITION_SHAPE('',$,#193);
#191=SHAPE_REPRESENTATION('',(#115),#183);
#192=PRODUCT_DEFINITION_CONTEXT('part definition',#197,'design');
#193=PRODUCT_DEFINITION('VG50','VG50',#194,#192);
#194=PRODUCT_DEFINITION_FORMATION('',$,#199);
#195=PRODUCT_RELATED_PRODUCT_CATEGORY('VG50','VG50',(#199));
#196=APPLICATION_PROTOCOL_DEFINITION('international standard',
'automotive_design',2009,#197);
#197=APPLICATION_CONTEXT(
'Core Data for Automotive Mechanical Design Process');
#198=PRODUCT_CONTEXT('part definition',#197,'mechanical');
#199=PRODUCT('VG50','VG50',$,(#198));
#200=PRESENTATION_STYLE_ASSIGNMENT((#201));
#201=SURFACE_STYLE_USAGE(.BOTH.,#204);
#202=SURFACE_STYLE_RENDERING_WITH_PROPERTIES($,#208,(#203));
#203=SURFACE_STYLE_TRANSPARENT(0.);
#204=SURFACE_SIDE_STYLE('',(#205,#202));
#205=SURFACE_STYLE_FILL_AREA(#206);
#206=FILL_AREA_STYLE('',(#207));
#207=FILL_AREA_STYLE_COLOUR('',#208);
#208=COLOUR_RGB('',0.250980392156863,0.250980392156863,0.250980392156863);
ENDSEC;
END-ISO-10303-21;
