ISO-10303-21;
HEADER;
/* Generated by software containing ST-Developer
 * from STEP Tools, Inc. (www.steptools.com) 
 */

FILE_DESCRIPTION(
/* description */ (''),
/* implementation_level */ '2;1');

FILE_NAME(
/* name */ 'G:\\Flanges + FITTINGS\\Gaskets\\Step files\\VG40.stp',
/* time_stamp */ '2018-01-11T11:33:52+00:00',
/* author */ ('paul'),
/* organization */ (''),
/* preprocessor_version */ 'ST-DEVELOPER v16.13',
/* originating_system */ 'Autodesk Inventor 2018',
/* authorisation */ '');

FILE_SCHEMA (('AUTOMOTIVE_DESIGN { 1 0 10303 214 3 1 1 }'));
ENDSEC;

DATA;
#10=MECHANICAL_DESIGN_GEOMETRIC_PRESENTATION_REPRESENTATION('',(#13),#161);
#11=SHAPE_REPRESENTATION_RELATIONSHIP('SRR','None',#168,#12);
#12=ADVANCED_BREP_SHAPE_REPRESENTATION('',(#14),#160);
#13=STYLED_ITEM('',(#177),#14);
#14=MANIFOLD_SOLID_BREP('Solid1',#81);
#15=PLANE('',#106);
#16=PLANE('',#110);
#17=CYLINDRICAL_SURFACE('',#104,20.9165);
#18=CYLINDRICAL_SURFACE('',#112,24.0665);
#19=FACE_BOUND('',#32,.T.);
#20=FACE_BOUND('',#34,.T.);
#21=FACE_BOUND('',#36,.T.);
#22=FACE_BOUND('',#38,.T.);
#23=FACE_BOUND('',#40,.T.);
#24=FACE_BOUND('',#42,.T.);
#25=FACE_OUTER_BOUND('',#31,.T.);
#26=FACE_OUTER_BOUND('',#33,.T.);
#27=FACE_OUTER_BOUND('',#35,.T.);
#28=FACE_OUTER_BOUND('',#37,.T.);
#29=FACE_OUTER_BOUND('',#39,.T.);
#30=FACE_OUTER_BOUND('',#41,.T.);
#31=EDGE_LOOP('',(#61));
#32=EDGE_LOOP('',(#62));
#33=EDGE_LOOP('',(#63));
#34=EDGE_LOOP('',(#64));
#35=EDGE_LOOP('',(#65));
#36=EDGE_LOOP('',(#66));
#37=EDGE_LOOP('',(#67));
#38=EDGE_LOOP('',(#68));
#39=EDGE_LOOP('',(#69));
#40=EDGE_LOOP('',(#70));
#41=EDGE_LOOP('',(#71));
#42=EDGE_LOOP('',(#72));
#43=CIRCLE('',#102,20.9165);
#44=CIRCLE('',#103,21.9165);
#45=CIRCLE('',#105,20.9165);
#46=CIRCLE('',#107,24.0665);
#47=CIRCLE('',#109,21.9165);
#48=CIRCLE('',#111,24.0665);
#49=VERTEX_POINT('',#141);
#50=VERTEX_POINT('',#143);
#51=VERTEX_POINT('',#146);
#52=VERTEX_POINT('',#149);
#53=VERTEX_POINT('',#152);
#54=VERTEX_POINT('',#155);
#55=EDGE_CURVE('',#49,#49,#43,.T.);
#56=EDGE_CURVE('',#50,#50,#44,.T.);
#57=EDGE_CURVE('',#51,#51,#45,.T.);
#58=EDGE_CURVE('',#52,#52,#46,.T.);
#59=EDGE_CURVE('',#53,#53,#47,.T.);
#60=EDGE_CURVE('',#54,#54,#48,.T.);
#61=ORIENTED_EDGE('',*,*,#55,.T.);
#62=ORIENTED_EDGE('',*,*,#56,.T.);
#63=ORIENTED_EDGE('',*,*,#57,.F.);
#64=ORIENTED_EDGE('',*,*,#55,.F.);
#65=ORIENTED_EDGE('',*,*,#58,.T.);
#66=ORIENTED_EDGE('',*,*,#56,.F.);
#67=ORIENTED_EDGE('',*,*,#57,.T.);
#68=ORIENTED_EDGE('',*,*,#59,.T.);
#69=ORIENTED_EDGE('',*,*,#60,.T.);
#70=ORIENTED_EDGE('',*,*,#59,.F.);
#71=ORIENTED_EDGE('',*,*,#58,.F.);
#72=ORIENTED_EDGE('',*,*,#60,.F.);
#73=CONICAL_SURFACE('',#101,21.4165,1.10714871779409);
#74=CONICAL_SURFACE('',#108,21.4165,1.10714871779409);
#75=ADVANCED_FACE('',(#25,#19),#73,.F.);
#76=ADVANCED_FACE('',(#26,#20),#17,.F.);
#77=ADVANCED_FACE('',(#27,#21),#15,.T.);
#78=ADVANCED_FACE('',(#28,#22),#74,.F.);
#79=ADVANCED_FACE('',(#29,#23),#16,.F.);
#80=ADVANCED_FACE('',(#30,#24),#18,.T.);
#81=CLOSED_SHELL('',(#75,#76,#77,#78,#79,#80));
#82=DERIVED_UNIT_ELEMENT(#84,0.);
#83=DERIVED_UNIT_ELEMENT(#163,0.);
#84=(
MASS_UNIT()
NAMED_UNIT(*)
SI_UNIT($,.GRAM.)
);
#85=DERIVED_UNIT((#82,#83));
#86=MEASURE_REPRESENTATION_ITEM('density measure',
POSITIVE_RATIO_MEASURE(1.2),#85);
#87=PROPERTY_DEFINITION_REPRESENTATION(#92,#89);
#88=PROPERTY_DEFINITION_REPRESENTATION(#93,#90);
#89=REPRESENTATION('material name',(#91),#160);
#90=REPRESENTATION('density',(#86),#160);
#91=DESCRIPTIVE_REPRESENTATION_ITEM('Rubber, Nitrile','Rubber, Nitrile');
#92=PROPERTY_DEFINITION('material property','material name',#170);
#93=PROPERTY_DEFINITION('material property','density of part',#170);
#94=DATE_TIME_ROLE('creation_date');
#95=APPLIED_DATE_AND_TIME_ASSIGNMENT(#96,#94,(#170));
#96=DATE_AND_TIME(#97,#98);
#97=CALENDAR_DATE(2015,17,4);
#98=LOCAL_TIME(8,57,21.,#99);
#99=COORDINATED_UNIVERSAL_TIME_OFFSET(0,0,.BEHIND.);
#100=AXIS2_PLACEMENT_3D('placement',#139,#113,#114);
#101=AXIS2_PLACEMENT_3D('',#140,#115,#116);
#102=AXIS2_PLACEMENT_3D('',#142,#117,#118);
#103=AXIS2_PLACEMENT_3D('',#144,#119,#120);
#104=AXIS2_PLACEMENT_3D('',#145,#121,#122);
#105=AXIS2_PLACEMENT_3D('',#147,#123,#124);
#106=AXIS2_PLACEMENT_3D('',#148,#125,#126);
#107=AXIS2_PLACEMENT_3D('',#150,#127,#128);
#108=AXIS2_PLACEMENT_3D('',#151,#129,#130);
#109=AXIS2_PLACEMENT_3D('',#153,#131,#132);
#110=AXIS2_PLACEMENT_3D('',#154,#133,#134);
#111=AXIS2_PLACEMENT_3D('',#156,#135,#136);
#112=AXIS2_PLACEMENT_3D('',#157,#137,#138);
#113=DIRECTION('axis',(0.,0.,1.));
#114=DIRECTION('refdir',(1.,0.,0.));
#115=DIRECTION('center_axis',(0.,0.,1.));
#116=DIRECTION('ref_axis',(-1.,0.,0.));
#117=DIRECTION('center_axis',(0.,0.,-1.));
#118=DIRECTION('ref_axis',(-1.,0.,0.));
#119=DIRECTION('center_axis',(0.,0.,1.));
#120=DIRECTION('ref_axis',(-1.,0.,0.));
#121=DIRECTION('center_axis',(0.,0.,1.));
#122=DIRECTION('ref_axis',(-1.,0.,0.));
#123=DIRECTION('center_axis',(0.,0.,1.));
#124=DIRECTION('ref_axis',(-1.,0.,0.));
#125=DIRECTION('center_axis',(0.,0.,1.));
#126=DIRECTION('ref_axis',(1.,0.,0.));
#127=DIRECTION('center_axis',(0.,0.,1.));
#128=DIRECTION('ref_axis',(-1.,0.,0.));
#129=DIRECTION('center_axis',(0.,0.,-1.));
#130=DIRECTION('ref_axis',(-1.,0.,0.));
#131=DIRECTION('center_axis',(0.,0.,-1.));
#132=DIRECTION('ref_axis',(-1.,0.,0.));
#133=DIRECTION('center_axis',(0.,0.,1.));
#134=DIRECTION('ref_axis',(1.,0.,0.));
#135=DIRECTION('center_axis',(0.,0.,-1.));
#136=DIRECTION('ref_axis',(-1.,0.,0.));
#137=DIRECTION('center_axis',(0.,0.,1.));
#138=DIRECTION('ref_axis',(-1.,0.,0.));
#139=CARTESIAN_POINT('',(0.,0.,0.));
#140=CARTESIAN_POINT('Origin',(0.,0.,1.65));
#141=CARTESIAN_POINT('',(20.9165,-2.56153247743656E-15,1.4));
#142=CARTESIAN_POINT('Origin',(0.,0.,1.4));
#143=CARTESIAN_POINT('',(21.9165,2.6839971573513E-15,1.9));
#144=CARTESIAN_POINT('Origin',(0.,0.,1.9));
#145=CARTESIAN_POINT('Origin',(0.,0.,0.));
#146=CARTESIAN_POINT('',(20.9165,2.56153247743656E-15,0.5));
#147=CARTESIAN_POINT('Origin',(0.,0.,0.5));
#148=CARTESIAN_POINT('Origin',(-2.45608018263998E-16,0.,1.9));
#149=CARTESIAN_POINT('',(24.0665,2.94729621916798E-15,1.9));
#150=CARTESIAN_POINT('Origin',(0.,0.,1.9));
#151=CARTESIAN_POINT('Origin',(0.,0.,0.25));
#152=CARTESIAN_POINT('',(21.9165,-2.6839971573513E-15,0.));
#153=CARTESIAN_POINT('Origin',(0.,0.,0.));
#154=CARTESIAN_POINT('Origin',(-2.45608018263998E-16,0.,0.));
#155=CARTESIAN_POINT('',(24.0665,2.94729621916798E-15,0.));
#156=CARTESIAN_POINT('Origin',(0.,0.,0.));
#157=CARTESIAN_POINT('Origin',(0.,0.,0.));
#158=UNCERTAINTY_MEASURE_WITH_UNIT(LENGTH_MEASURE(0.01),#162,
'DISTANCE_ACCURACY_VALUE',
'Maximum model space distance between geometric entities at asserted c
onnectivities');
#159=UNCERTAINTY_MEASURE_WITH_UNIT(LENGTH_MEASURE(0.01),#162,
'DISTANCE_ACCURACY_VALUE',
'Maximum model space distance between geometric entities at asserted c
onnectivities');
#160=(
GEOMETRIC_REPRESENTATION_CONTEXT(3)
GLOBAL_UNCERTAINTY_ASSIGNED_CONTEXT((#158))
GLOBAL_UNIT_ASSIGNED_CONTEXT((#162,#165,#164))
REPRESENTATION_CONTEXT('','3D')
);
#161=(
GEOMETRIC_REPRESENTATION_CONTEXT(3)
GLOBAL_UNCERTAINTY_ASSIGNED_CONTEXT((#159))
GLOBAL_UNIT_ASSIGNED_CONTEXT((#162,#165,#164))
REPRESENTATION_CONTEXT('','3D')
);
#162=(
LENGTH_UNIT()
NAMED_UNIT(*)
SI_UNIT(.MILLI.,.METRE.)
);
#163=(
LENGTH_UNIT()
NAMED_UNIT(*)
SI_UNIT(.CENTI.,.METRE.)
);
#164=(
NAMED_UNIT(*)
SI_UNIT($,.STERADIAN.)
SOLID_ANGLE_UNIT()
);
#165=(
NAMED_UNIT(*)
PLANE_ANGLE_UNIT()
SI_UNIT($,.RADIAN.)
);
#166=SHAPE_DEFINITION_REPRESENTATION(#167,#168);
#167=PRODUCT_DEFINITION_SHAPE('',$,#170);
#168=SHAPE_REPRESENTATION('',(#100),#160);
#169=PRODUCT_DEFINITION_CONTEXT('part definition',#174,'design');
#170=PRODUCT_DEFINITION('VG40','VG40',#171,#169);
#171=PRODUCT_DEFINITION_FORMATION('',$,#176);
#172=PRODUCT_RELATED_PRODUCT_CATEGORY('VG40','VG40',(#176));
#173=APPLICATION_PROTOCOL_DEFINITION('international standard',
'automotive_design',2009,#174);
#174=APPLICATION_CONTEXT(
'Core Data for Automotive Mechanical Design Process');
#175=PRODUCT_CONTEXT('part definition',#174,'mechanical');
#176=PRODUCT('VG40','VG40',$,(#175));
#177=PRESENTATION_STYLE_ASSIGNMENT((#178));
#178=SURFACE_STYLE_USAGE(.BOTH.,#179);
#179=SURFACE_SIDE_STYLE('',(#180));
#180=SURFACE_STYLE_FILL_AREA(#181);
#181=FILL_AREA_STYLE('',(#182));
#182=FILL_AREA_STYLE_COLOUR('',#183);
#183=COLOUR_RGB('',0.250980392156863,0.250980392156863,0.250980392156863);
ENDSEC;
END-ISO-10303-21;
