ISO-10303-21;
HEADER;
/* Generated by software containing ST-Developer
 * from STEP Tools, Inc. (www.steptools.com) 
 */

FILE_DESCRIPTION(
/* description */ (''),
/* implementation_level */ '2;1');

FILE_NAME(
/* name */ 
'G:\\Flanges + FITTINGS\\Gaskets\\Step files\\CG63-82.5_72AG.stp',
/* time_stamp */ '2018-01-12T16:10:09+00:00',
/* author */ ('paul'),
/* organization */ (''),
/* preprocessor_version */ 'ST-DEVELOPER v16.13',
/* originating_system */ 'Autodesk Inventor 2018',
/* authorisation */ '');

FILE_SCHEMA (('AUTOMOTIVE_DESIGN { 1 0 10303 214 3 1 1 }'));
ENDSEC;

DATA;
#10=MECHANICAL_DESIGN_GEOMETRIC_PRESENTATION_REPRESENTATION('',(#13),#121);
#11=SHAPE_REPRESENTATION_RELATIONSHIP('SRR','None',#128,#12);
#12=ADVANCED_BREP_SHAPE_REPRESENTATION('',(#14),#120);
#13=STYLED_ITEM('',(#137),#14);
#14=MANIFOLD_SOLID_BREP('Solid1',#59);
#15=PLANE('',#85);
#16=PLANE('',#86);
#17=FACE_BOUND('',#26,.T.);
#18=FACE_BOUND('',#28,.T.);
#19=FACE_BOUND('',#30,.T.);
#20=FACE_BOUND('',#32,.T.);
#21=FACE_OUTER_BOUND('',#25,.T.);
#22=FACE_OUTER_BOUND('',#27,.T.);
#23=FACE_OUTER_BOUND('',#29,.T.);
#24=FACE_OUTER_BOUND('',#31,.T.);
#25=EDGE_LOOP('',(#45));
#26=EDGE_LOOP('',(#46));
#27=EDGE_LOOP('',(#47));
#28=EDGE_LOOP('',(#48));
#29=EDGE_LOOP('',(#49));
#30=EDGE_LOOP('',(#50));
#31=EDGE_LOOP('',(#51));
#32=EDGE_LOOP('',(#52));
#33=CIRCLE('',#80,35.875);
#34=CIRCLE('',#81,35.875);
#35=CIRCLE('',#83,41.275);
#36=CIRCLE('',#84,41.275);
#37=VERTEX_POINT('',#107);
#38=VERTEX_POINT('',#109);
#39=VERTEX_POINT('',#112);
#40=VERTEX_POINT('',#114);
#41=EDGE_CURVE('',#37,#37,#33,.T.);
#42=EDGE_CURVE('',#38,#38,#34,.T.);
#43=EDGE_CURVE('',#39,#39,#35,.T.);
#44=EDGE_CURVE('',#40,#40,#36,.T.);
#45=ORIENTED_EDGE('',*,*,#41,.F.);
#46=ORIENTED_EDGE('',*,*,#42,.F.);
#47=ORIENTED_EDGE('',*,*,#43,.F.);
#48=ORIENTED_EDGE('',*,*,#44,.F.);
#49=ORIENTED_EDGE('',*,*,#44,.T.);
#50=ORIENTED_EDGE('',*,*,#42,.T.);
#51=ORIENTED_EDGE('',*,*,#43,.T.);
#52=ORIENTED_EDGE('',*,*,#41,.T.);
#53=CYLINDRICAL_SURFACE('',#79,35.875);
#54=CYLINDRICAL_SURFACE('',#82,41.275);
#55=ADVANCED_FACE('',(#21,#17),#53,.F.);
#56=ADVANCED_FACE('',(#22,#18),#54,.T.);
#57=ADVANCED_FACE('',(#23,#19),#15,.F.);
#58=ADVANCED_FACE('',(#24,#20),#16,.T.);
#59=CLOSED_SHELL('',(#55,#56,#57,#58));
#60=DERIVED_UNIT_ELEMENT(#62,0.);
#61=DERIVED_UNIT_ELEMENT(#123,0.);
#62=(
MASS_UNIT()
NAMED_UNIT(*)
SI_UNIT($,.GRAM.)
);
#63=DERIVED_UNIT((#60,#61));
#64=MEASURE_REPRESENTATION_ITEM('density measure',
POSITIVE_RATIO_MEASURE(10.49),#63);
#65=PROPERTY_DEFINITION_REPRESENTATION(#70,#67);
#66=PROPERTY_DEFINITION_REPRESENTATION(#71,#68);
#67=REPRESENTATION('material name',(#69),#120);
#68=REPRESENTATION('density',(#64),#120);
#69=DESCRIPTIVE_REPRESENTATION_ITEM('Silver','Silver');
#70=PROPERTY_DEFINITION('material property','material name',#130);
#71=PROPERTY_DEFINITION('material property','density of part',#130);
#72=DATE_TIME_ROLE('creation_date');
#73=APPLIED_DATE_AND_TIME_ASSIGNMENT(#74,#72,(#130));
#74=DATE_AND_TIME(#75,#76);
#75=CALENDAR_DATE(2015,17,4);
#76=LOCAL_TIME(8,57,21.,#77);
#77=COORDINATED_UNIVERSAL_TIME_OFFSET(0,0,.BEHIND.);
#78=AXIS2_PLACEMENT_3D('placement',#105,#87,#88);
#79=AXIS2_PLACEMENT_3D('',#106,#89,#90);
#80=AXIS2_PLACEMENT_3D('',#108,#91,#92);
#81=AXIS2_PLACEMENT_3D('',#110,#93,#94);
#82=AXIS2_PLACEMENT_3D('',#111,#95,#96);
#83=AXIS2_PLACEMENT_3D('',#113,#97,#98);
#84=AXIS2_PLACEMENT_3D('',#115,#99,#100);
#85=AXIS2_PLACEMENT_3D('',#116,#101,#102);
#86=AXIS2_PLACEMENT_3D('',#117,#103,#104);
#87=DIRECTION('axis',(0.,0.,1.));
#88=DIRECTION('refdir',(1.,0.,0.));
#89=DIRECTION('center_axis',(0.,0.,1.));
#90=DIRECTION('ref_axis',(-1.,0.,0.));
#91=DIRECTION('center_axis',(0.,0.,-1.));
#92=DIRECTION('ref_axis',(-1.,0.,0.));
#93=DIRECTION('center_axis',(0.,0.,1.));
#94=DIRECTION('ref_axis',(-1.,0.,0.));
#95=DIRECTION('center_axis',(0.,0.,1.));
#96=DIRECTION('ref_axis',(-1.,0.,0.));
#97=DIRECTION('center_axis',(0.,0.,1.));
#98=DIRECTION('ref_axis',(-1.,0.,0.));
#99=DIRECTION('center_axis',(0.,0.,-1.));
#100=DIRECTION('ref_axis',(-1.,0.,0.));
#101=DIRECTION('center_axis',(0.,0.,1.));
#102=DIRECTION('ref_axis',(1.,0.,0.));
#103=DIRECTION('center_axis',(0.,0.,1.));
#104=DIRECTION('ref_axis',(1.,0.,0.));
#105=CARTESIAN_POINT('',(0.,0.,0.));
#106=CARTESIAN_POINT('Origin',(0.,0.,0.));
#107=CARTESIAN_POINT('',(35.875,4.39342039194113E-15,2.));
#108=CARTESIAN_POINT('Origin',(0.,0.,2.));
#109=CARTESIAN_POINT('',(35.875,4.39342039194113E-15,0.));
#110=CARTESIAN_POINT('Origin',(0.,0.,0.));
#111=CARTESIAN_POINT('Origin',(0.,0.,0.));
#112=CARTESIAN_POINT('',(41.275,5.0547296634807E-15,2.));
#113=CARTESIAN_POINT('Origin',(0.,0.,2.));
#114=CARTESIAN_POINT('',(41.275,5.0547296634807E-15,0.));
#115=CARTESIAN_POINT('Origin',(0.,0.,0.));
#116=CARTESIAN_POINT('Origin',(-4.72493877274473E-15,0.,0.));
#117=CARTESIAN_POINT('Origin',(-4.72493877274473E-15,0.,2.));
#118=UNCERTAINTY_MEASURE_WITH_UNIT(LENGTH_MEASURE(0.01),#122,
'DISTANCE_ACCURACY_VALUE',
'Maximum model space distance between geometric entities at asserted c
onnectivities');
#119=UNCERTAINTY_MEASURE_WITH_UNIT(LENGTH_MEASURE(0.01),#122,
'DISTANCE_ACCURACY_VALUE',
'Maximum model space distance between geometric entities at asserted c
onnectivities');
#120=(
GEOMETRIC_REPRESENTATION_CONTEXT(3)
GLOBAL_UNCERTAINTY_ASSIGNED_CONTEXT((#118))
GLOBAL_UNIT_ASSIGNED_CONTEXT((#122,#125,#124))
REPRESENTATION_CONTEXT('','3D')
);
#121=(
GEOMETRIC_REPRESENTATION_CONTEXT(3)
GLOBAL_UNCERTAINTY_ASSIGNED_CONTEXT((#119))
GLOBAL_UNIT_ASSIGNED_CONTEXT((#122,#125,#124))
REPRESENTATION_CONTEXT('','3D')
);
#122=(
LENGTH_UNIT()
NAMED_UNIT(*)
SI_UNIT(.MILLI.,.METRE.)
);
#123=(
LENGTH_UNIT()
NAMED_UNIT(*)
SI_UNIT(.CENTI.,.METRE.)
);
#124=(
NAMED_UNIT(*)
SI_UNIT($,.STERADIAN.)
SOLID_ANGLE_UNIT()
);
#125=(
NAMED_UNIT(*)
PLANE_ANGLE_UNIT()
SI_UNIT($,.RADIAN.)
);
#126=SHAPE_DEFINITION_REPRESENTATION(#127,#128);
#127=PRODUCT_DEFINITION_SHAPE('',$,#130);
#128=SHAPE_REPRESENTATION('',(#78),#120);
#129=PRODUCT_DEFINITION_CONTEXT('part definition',#134,'design');
#130=PRODUCT_DEFINITION('CG63-82.5_72AG','CG63-82.5_72AG',#131,#129);
#131=PRODUCT_DEFINITION_FORMATION('',$,#136);
#132=PRODUCT_RELATED_PRODUCT_CATEGORY('CG63-82.5_72AG','CG63-82.5_72AG',
(#136));
#133=APPLICATION_PROTOCOL_DEFINITION('international standard',
'automotive_design',2009,#134);
#134=APPLICATION_CONTEXT(
'Core Data for Automotive Mechanical Design Process');
#135=PRODUCT_CONTEXT('part definition',#134,'mechanical');
#136=PRODUCT('CG63-82.5_72AG','CG63-82.5_72AG',$,(#135));
#137=PRESENTATION_STYLE_ASSIGNMENT((#138));
#138=SURFACE_STYLE_USAGE(.BOTH.,#139);
#139=SURFACE_SIDE_STYLE('',(#140));
#140=SURFACE_STYLE_FILL_AREA(#141);
#141=FILL_AREA_STYLE('',(#142));
#142=FILL_AREA_STYLE_COLOUR('',#143);
#143=COLOUR_RGB('',1.,0.996078431372549,0.964705882352941);
ENDSEC;
END-ISO-10303-21;
