ISO-10303-21;
HEADER;
/* Generated by software containing ST-Developer
 * from STEP Tools, Inc. (www.steptools.com) 
 */

FILE_DESCRIPTION(
/* description */ (''),
/* implementation_level */ '2;1');

FILE_NAME(
/* name */ 'G:\\Flanges + FITTINGS\\Gaskets\\Step files\\CG16-SD.stp',
/* time_stamp */ '2018-01-11T11:16:59+00:00',
/* author */ ('paul'),
/* organization */ (''),
/* preprocessor_version */ 'ST-DEVELOPER v16.13',
/* originating_system */ 'Autodesk Inventor 2018',
/* authorisation */ '');

FILE_SCHEMA (('AUTOMOTIVE_DESIGN { 1 0 10303 214 3 1 1 }'));
ENDSEC;

DATA;
#10=MECHANICAL_DESIGN_GEOMETRIC_PRESENTATION_REPRESENTATION('',(#13),#87);
#11=SHAPE_REPRESENTATION_RELATIONSHIP('SRR','None',#94,#12);
#12=ADVANCED_BREP_SHAPE_REPRESENTATION('',(#14),#86);
#13=STYLED_ITEM('',(#103),#14);
#14=MANIFOLD_SOLID_BREP('Solid1',#39);
#15=PLANE('',#62);
#16=PLANE('',#63);
#17=FACE_BOUND('',#22,.T.);
#18=FACE_OUTER_BOUND('',#21,.T.);
#19=FACE_OUTER_BOUND('',#23,.T.);
#20=FACE_OUTER_BOUND('',#24,.T.);
#21=EDGE_LOOP('',(#31));
#22=EDGE_LOOP('',(#32));
#23=EDGE_LOOP('',(#33));
#24=EDGE_LOOP('',(#34));
#25=CIRCLE('',#60,10.645);
#26=CIRCLE('',#61,10.645);
#27=VERTEX_POINT('',#78);
#28=VERTEX_POINT('',#80);
#29=EDGE_CURVE('',#27,#27,#25,.T.);
#30=EDGE_CURVE('',#28,#28,#26,.T.);
#31=ORIENTED_EDGE('',*,*,#29,.F.);
#32=ORIENTED_EDGE('',*,*,#30,.F.);
#33=ORIENTED_EDGE('',*,*,#30,.T.);
#34=ORIENTED_EDGE('',*,*,#29,.T.);
#35=CYLINDRICAL_SURFACE('',#59,10.645);
#36=ADVANCED_FACE('',(#18,#17),#35,.T.);
#37=ADVANCED_FACE('',(#19),#15,.F.);
#38=ADVANCED_FACE('',(#20),#16,.T.);
#39=CLOSED_SHELL('',(#36,#37,#38));
#40=DERIVED_UNIT_ELEMENT(#42,0.);
#41=DERIVED_UNIT_ELEMENT(#89,0.);
#42=(
MASS_UNIT()
NAMED_UNIT(*)
SI_UNIT($,.GRAM.)
);
#43=DERIVED_UNIT((#40,#41));
#44=MEASURE_REPRESENTATION_ITEM('density measure',
POSITIVE_RATIO_MEASURE(8.94),#43);
#45=PROPERTY_DEFINITION_REPRESENTATION(#50,#47);
#46=PROPERTY_DEFINITION_REPRESENTATION(#51,#48);
#47=REPRESENTATION('material name',(#49),#86);
#48=REPRESENTATION('density',(#44),#86);
#49=DESCRIPTIVE_REPRESENTATION_ITEM('Copper','Copper');
#50=PROPERTY_DEFINITION('material property','material name',#96);
#51=PROPERTY_DEFINITION('material property','density of part',#96);
#52=DATE_TIME_ROLE('creation_date');
#53=APPLIED_DATE_AND_TIME_ASSIGNMENT(#54,#52,(#96));
#54=DATE_AND_TIME(#55,#56);
#55=CALENDAR_DATE(2015,17,4);
#56=LOCAL_TIME(8,57,21.,#57);
#57=COORDINATED_UNIVERSAL_TIME_OFFSET(0,0,.BEHIND.);
#58=AXIS2_PLACEMENT_3D('placement',#76,#64,#65);
#59=AXIS2_PLACEMENT_3D('',#77,#66,#67);
#60=AXIS2_PLACEMENT_3D('',#79,#68,#69);
#61=AXIS2_PLACEMENT_3D('',#81,#70,#71);
#62=AXIS2_PLACEMENT_3D('',#82,#72,#73);
#63=AXIS2_PLACEMENT_3D('',#83,#74,#75);
#64=DIRECTION('axis',(0.,0.,1.));
#65=DIRECTION('refdir',(1.,0.,0.));
#66=DIRECTION('center_axis',(0.,0.,1.));
#67=DIRECTION('ref_axis',(-1.,0.,0.));
#68=DIRECTION('center_axis',(0.,0.,1.));
#69=DIRECTION('ref_axis',(-1.,0.,0.));
#70=DIRECTION('center_axis',(0.,0.,-1.));
#71=DIRECTION('ref_axis',(-1.,0.,0.));
#72=DIRECTION('center_axis',(0.,0.,1.));
#73=DIRECTION('ref_axis',(1.,0.,0.));
#74=DIRECTION('center_axis',(0.,0.,1.));
#75=DIRECTION('ref_axis',(1.,0.,0.));
#76=CARTESIAN_POINT('',(0.,0.,0.));
#77=CARTESIAN_POINT('Origin',(0.,0.,0.));
#78=CARTESIAN_POINT('',(10.645,1.30363651769236E-15,2.));
#79=CARTESIAN_POINT('Origin',(0.,0.,2.));
#80=CARTESIAN_POINT('',(10.645,1.30363651769236E-15,0.));
#81=CARTESIAN_POINT('Origin',(0.,0.,0.));
#82=CARTESIAN_POINT('Origin',(-4.56287237481145E-16,0.,0.));
#83=CARTESIAN_POINT('Origin',(-4.56287237481145E-16,0.,2.));
#84=UNCERTAINTY_MEASURE_WITH_UNIT(LENGTH_MEASURE(0.01),#88,
'DISTANCE_ACCURACY_VALUE',
'Maximum model space distance between geometric entities at asserted c
onnectivities');
#85=UNCERTAINTY_MEASURE_WITH_UNIT(LENGTH_MEASURE(0.01),#88,
'DISTANCE_ACCURACY_VALUE',
'Maximum model space distance between geometric entities at asserted c
onnectivities');
#86=(
GEOMETRIC_REPRESENTATION_CONTEXT(3)
GLOBAL_UNCERTAINTY_ASSIGNED_CONTEXT((#84))
GLOBAL_UNIT_ASSIGNED_CONTEXT((#88,#91,#90))
REPRESENTATION_CONTEXT('','3D')
);
#87=(
GEOMETRIC_REPRESENTATION_CONTEXT(3)
GLOBAL_UNCERTAINTY_ASSIGNED_CONTEXT((#85))
GLOBAL_UNIT_ASSIGNED_CONTEXT((#88,#91,#90))
REPRESENTATION_CONTEXT('','3D')
);
#88=(
LENGTH_UNIT()
NAMED_UNIT(*)
SI_UNIT(.MILLI.,.METRE.)
);
#89=(
LENGTH_UNIT()
NAMED_UNIT(*)
SI_UNIT(.CENTI.,.METRE.)
);
#90=(
NAMED_UNIT(*)
SI_UNIT($,.STERADIAN.)
SOLID_ANGLE_UNIT()
);
#91=(
NAMED_UNIT(*)
PLANE_ANGLE_UNIT()
SI_UNIT($,.RADIAN.)
);
#92=SHAPE_DEFINITION_REPRESENTATION(#93,#94);
#93=PRODUCT_DEFINITION_SHAPE('',$,#96);
#94=SHAPE_REPRESENTATION('',(#58),#86);
#95=PRODUCT_DEFINITION_CONTEXT('part definition',#100,'design');
#96=PRODUCT_DEFINITION('CG16-SD','CG16-SD',#97,#95);
#97=PRODUCT_DEFINITION_FORMATION('',$,#102);
#98=PRODUCT_RELATED_PRODUCT_CATEGORY('CG16-SD','CG16-SD',(#102));
#99=APPLICATION_PROTOCOL_DEFINITION('international standard',
'automotive_design',2009,#100);
#100=APPLICATION_CONTEXT(
'Core Data for Automotive Mechanical Design Process');
#101=PRODUCT_CONTEXT('part definition',#100,'mechanical');
#102=PRODUCT('CG16-SD','CG16-SD',$,(#101));
#103=PRESENTATION_STYLE_ASSIGNMENT((#104));
#104=SURFACE_STYLE_USAGE(.BOTH.,#105);
#105=SURFACE_SIDE_STYLE('',(#106));
#106=SURFACE_STYLE_FILL_AREA(#107);
#107=FILL_AREA_STYLE('',(#108));
#108=FILL_AREA_STYLE_COLOUR('',#109);
#109=COLOUR_RGB('',0.737254901960784,0.313725490196078,0.184313725490196);
ENDSEC;
END-ISO-10303-21;
