ISO-10303-21;
HEADER;
/* Generated by software containing ST-Developer
 * from STEP Tools, Inc. (www.steptools.com) 
 */

FILE_DESCRIPTION(
/* description */ ('QF16-Q25'),
/* implementation_level */ '2;1');

FILE_NAME(
/* name */ 'G:\\drawings\\part models\\1000002A.stp',
/* time_stamp */ '2019-07-18T08:46:56-04:00',
/* author */ ('Glen_C'),
/* organization */ (''),
/* preprocessor_version */ 'ST-DEVELOPER v16.13',
/* originating_system */ 'Autodesk Inventor 2018',
/* authorisation */ '');

FILE_SCHEMA (('AUTOMOTIVE_DESIGN { 1 0 10303 214 3 1 1 }'));
ENDSEC;

DATA;
#10=MECHANICAL_DESIGN_GEOMETRIC_PRESENTATION_REPRESENTATION('',(#13),#361);
#11=SHAPE_REPRESENTATION_RELATIONSHIP('SRR','None',#371,#12);
#12=ADVANCED_BREP_SHAPE_REPRESENTATION('',(#14),#360);
#13=STYLED_ITEM('',(#380),#14);
#14=MANIFOLD_SOLID_BREP('Solid1',#191);
#15=CONICAL_SURFACE('',#235,0.41725,1.30899693899575);
#16=PLANE('',#220);
#17=PLANE('',#221);
#18=PLANE('',#226);
#19=PLANE('',#227);
#20=PLANE('',#232);
#21=PLANE('',#240);
#22=PLANE('',#242);
#23=FACE_BOUND('',#56,.T.);
#24=FACE_BOUND('',#58,.T.);
#25=FACE_BOUND('',#60,.T.);
#26=FACE_BOUND('',#62,.T.);
#27=FACE_BOUND('',#64,.T.);
#28=FACE_BOUND('',#66,.T.);
#29=FACE_BOUND('',#68,.T.);
#30=FACE_BOUND('',#70,.T.);
#31=FACE_BOUND('',#72,.T.);
#32=FACE_BOUND('',#74,.T.);
#33=FACE_BOUND('',#76,.T.);
#34=FACE_BOUND('',#78,.T.);
#35=FACE_BOUND('',#80,.T.);
#36=FACE_BOUND('',#82,.T.);
#37=FACE_BOUND('',#84,.T.);
#38=FACE_BOUND('',#86,.T.);
#39=FACE_OUTER_BOUND('',#55,.T.);
#40=FACE_OUTER_BOUND('',#57,.T.);
#41=FACE_OUTER_BOUND('',#59,.T.);
#42=FACE_OUTER_BOUND('',#61,.T.);
#43=FACE_OUTER_BOUND('',#63,.T.);
#44=FACE_OUTER_BOUND('',#65,.T.);
#45=FACE_OUTER_BOUND('',#67,.T.);
#46=FACE_OUTER_BOUND('',#69,.T.);
#47=FACE_OUTER_BOUND('',#71,.T.);
#48=FACE_OUTER_BOUND('',#73,.T.);
#49=FACE_OUTER_BOUND('',#75,.T.);
#50=FACE_OUTER_BOUND('',#77,.T.);
#51=FACE_OUTER_BOUND('',#79,.T.);
#52=FACE_OUTER_BOUND('',#81,.T.);
#53=FACE_OUTER_BOUND('',#83,.T.);
#54=FACE_OUTER_BOUND('',#85,.T.);
#55=EDGE_LOOP('',(#135));
#56=EDGE_LOOP('',(#136));
#57=EDGE_LOOP('',(#137));
#58=EDGE_LOOP('',(#138));
#59=EDGE_LOOP('',(#139));
#60=EDGE_LOOP('',(#140));
#61=EDGE_LOOP('',(#141));
#62=EDGE_LOOP('',(#142));
#63=EDGE_LOOP('',(#143));
#64=EDGE_LOOP('',(#144));
#65=EDGE_LOOP('',(#145));
#66=EDGE_LOOP('',(#146));
#67=EDGE_LOOP('',(#147));
#68=EDGE_LOOP('',(#148));
#69=EDGE_LOOP('',(#149));
#70=EDGE_LOOP('',(#150));
#71=EDGE_LOOP('',(#151));
#72=EDGE_LOOP('',(#152));
#73=EDGE_LOOP('',(#153));
#74=EDGE_LOOP('',(#154));
#75=EDGE_LOOP('',(#155));
#76=EDGE_LOOP('',(#156));
#77=EDGE_LOOP('',(#157));
#78=EDGE_LOOP('',(#158));
#79=EDGE_LOOP('',(#159));
#80=EDGE_LOOP('',(#160));
#81=EDGE_LOOP('',(#161));
#82=EDGE_LOOP('',(#162));
#83=EDGE_LOOP('',(#163));
#84=EDGE_LOOP('',(#164));
#85=EDGE_LOOP('',(#165));
#86=EDGE_LOOP('',(#166));
#87=CIRCLE('',#212,0.1325);
#88=CIRCLE('',#213,0.1325);
#89=CIRCLE('',#215,0.2445);
#90=CIRCLE('',#216,0.2445);
#91=CIRCLE('',#218,0.3385);
#92=CIRCLE('',#219,0.3385);
#93=CIRCLE('',#222,0.59);
#94=CIRCLE('',#224,0.2095);
#95=CIRCLE('',#225,0.2095);
#96=CIRCLE('',#228,0.25);
#97=CIRCLE('',#229,0.2095);
#98=CIRCLE('',#231,0.25);
#99=CIRCLE('',#234,0.2095);
#100=CIRCLE('',#236,0.2445);
#101=CIRCLE('',#237,0.59);
#102=CIRCLE('',#239,0.2445);
#103=VERTEX_POINT('',#311);
#104=VERTEX_POINT('',#313);
#105=VERTEX_POINT('',#316);
#106=VERTEX_POINT('',#318);
#107=VERTEX_POINT('',#321);
#108=VERTEX_POINT('',#323);
#109=VERTEX_POINT('',#327);
#110=VERTEX_POINT('',#330);
#111=VERTEX_POINT('',#332);
#112=VERTEX_POINT('',#336);
#113=VERTEX_POINT('',#338);
#114=VERTEX_POINT('',#341);
#115=VERTEX_POINT('',#345);
#116=VERTEX_POINT('',#348);
#117=VERTEX_POINT('',#350);
#118=VERTEX_POINT('',#353);
#119=EDGE_CURVE('',#103,#103,#87,.T.);
#120=EDGE_CURVE('',#104,#104,#88,.T.);
#121=EDGE_CURVE('',#105,#105,#89,.T.);
#122=EDGE_CURVE('',#106,#106,#90,.T.);
#123=EDGE_CURVE('',#107,#107,#91,.T.);
#124=EDGE_CURVE('',#108,#108,#92,.T.);
#125=EDGE_CURVE('',#109,#109,#93,.T.);
#126=EDGE_CURVE('',#110,#110,#94,.T.);
#127=EDGE_CURVE('',#111,#111,#95,.T.);
#128=EDGE_CURVE('',#112,#112,#96,.T.);
#129=EDGE_CURVE('',#113,#113,#97,.T.);
#130=EDGE_CURVE('',#114,#114,#98,.T.);
#131=EDGE_CURVE('',#115,#115,#99,.T.);
#132=EDGE_CURVE('',#116,#116,#100,.T.);
#133=EDGE_CURVE('',#117,#117,#101,.T.);
#134=EDGE_CURVE('',#118,#118,#102,.T.);
#135=ORIENTED_EDGE('',*,*,#119,.F.);
#136=ORIENTED_EDGE('',*,*,#120,.F.);
#137=ORIENTED_EDGE('',*,*,#121,.T.);
#138=ORIENTED_EDGE('',*,*,#122,.F.);
#139=ORIENTED_EDGE('',*,*,#123,.F.);
#140=ORIENTED_EDGE('',*,*,#124,.F.);
#141=ORIENTED_EDGE('',*,*,#123,.T.);
#142=ORIENTED_EDGE('',*,*,#121,.F.);
#143=ORIENTED_EDGE('',*,*,#125,.F.);
#144=ORIENTED_EDGE('',*,*,#124,.T.);
#145=ORIENTED_EDGE('',*,*,#126,.T.);
#146=ORIENTED_EDGE('',*,*,#127,.F.);
#147=ORIENTED_EDGE('',*,*,#126,.F.);
#148=ORIENTED_EDGE('',*,*,#119,.T.);
#149=ORIENTED_EDGE('',*,*,#128,.T.);
#150=ORIENTED_EDGE('',*,*,#129,.F.);
#151=ORIENTED_EDGE('',*,*,#130,.T.);
#152=ORIENTED_EDGE('',*,*,#128,.F.);
#153=ORIENTED_EDGE('',*,*,#130,.F.);
#154=ORIENTED_EDGE('',*,*,#127,.T.);
#155=ORIENTED_EDGE('',*,*,#129,.T.);
#156=ORIENTED_EDGE('',*,*,#131,.F.);
#157=ORIENTED_EDGE('',*,*,#132,.F.);
#158=ORIENTED_EDGE('',*,*,#133,.T.);
#159=ORIENTED_EDGE('',*,*,#132,.T.);
#160=ORIENTED_EDGE('',*,*,#134,.T.);
#161=ORIENTED_EDGE('',*,*,#134,.F.);
#162=ORIENTED_EDGE('',*,*,#131,.T.);
#163=ORIENTED_EDGE('',*,*,#125,.T.);
#164=ORIENTED_EDGE('',*,*,#133,.F.);
#165=ORIENTED_EDGE('',*,*,#122,.T.);
#166=ORIENTED_EDGE('',*,*,#120,.T.);
#167=CYLINDRICAL_SURFACE('',#211,0.1325);
#168=CYLINDRICAL_SURFACE('',#214,0.2445);
#169=CYLINDRICAL_SURFACE('',#217,0.3385);
#170=CYLINDRICAL_SURFACE('',#223,0.2095);
#171=CYLINDRICAL_SURFACE('',#230,0.25);
#172=CYLINDRICAL_SURFACE('',#233,0.2095);
#173=CYLINDRICAL_SURFACE('',#238,0.2445);
#174=CYLINDRICAL_SURFACE('',#241,0.59);
#175=ADVANCED_FACE('',(#39,#23),#167,.F.);
#176=ADVANCED_FACE('',(#40,#24),#168,.T.);
#177=ADVANCED_FACE('',(#41,#25),#169,.F.);
#178=ADVANCED_FACE('',(#42,#26),#16,.F.);
#179=ADVANCED_FACE('',(#43,#27),#17,.F.);
#180=ADVANCED_FACE('',(#44,#28),#170,.T.);
#181=ADVANCED_FACE('',(#45,#29),#18,.F.);
#182=ADVANCED_FACE('',(#46,#30),#19,.T.);
#183=ADVANCED_FACE('',(#47,#31),#171,.T.);
#184=ADVANCED_FACE('',(#48,#32),#20,.F.);
#185=ADVANCED_FACE('',(#49,#33),#172,.T.);
#186=ADVANCED_FACE('',(#50,#34),#15,.T.);
#187=ADVANCED_FACE('',(#51,#35),#173,.T.);
#188=ADVANCED_FACE('',(#52,#36),#21,.T.);
#189=ADVANCED_FACE('',(#53,#37),#174,.T.);
#190=ADVANCED_FACE('',(#54,#38),#22,.F.);
#191=CLOSED_SHELL('',(#175,#176,#177,#178,#179,#180,#181,#182,#183,#184,
#185,#186,#187,#188,#189,#190));
#192=DERIVED_UNIT_ELEMENT(#194,0.);
#193=DERIVED_UNIT_ELEMENT(#365,0.);
#194=(
MASS_UNIT()
NAMED_UNIT(*)
SI_UNIT($,.GRAM.)
);
#195=DERIVED_UNIT((#192,#193));
#196=MEASURE_REPRESENTATION_ITEM('density measure',
POSITIVE_RATIO_MEASURE(8.03),#195);
#197=PROPERTY_DEFINITION_REPRESENTATION(#202,#199);
#198=PROPERTY_DEFINITION_REPRESENTATION(#203,#200);
#199=REPRESENTATION('material name',(#201),#360);
#200=REPRESENTATION('density',(#196),#360);
#201=DESCRIPTIVE_REPRESENTATION_ITEM('304 Stainless Steel',
'304 Stainless Steel');
#202=PROPERTY_DEFINITION('material property','material name',#373);
#203=PROPERTY_DEFINITION('material property','density of part',#373);
#204=DATE_TIME_ROLE('creation_date');
#205=APPLIED_DATE_AND_TIME_ASSIGNMENT(#206,#204,(#373));
#206=DATE_AND_TIME(#207,#208);
#207=CALENDAR_DATE(2005,21,3);
#208=LOCAL_TIME(20,18,39.,#209);
#209=COORDINATED_UNIVERSAL_TIME_OFFSET(0,0,.BEHIND.);
#210=AXIS2_PLACEMENT_3D('placement',#309,#243,#244);
#211=AXIS2_PLACEMENT_3D('',#310,#245,#246);
#212=AXIS2_PLACEMENT_3D('',#312,#247,#248);
#213=AXIS2_PLACEMENT_3D('',#314,#249,#250);
#214=AXIS2_PLACEMENT_3D('',#315,#251,#252);
#215=AXIS2_PLACEMENT_3D('',#317,#253,#254);
#216=AXIS2_PLACEMENT_3D('',#319,#255,#256);
#217=AXIS2_PLACEMENT_3D('',#320,#257,#258);
#218=AXIS2_PLACEMENT_3D('',#322,#259,#260);
#219=AXIS2_PLACEMENT_3D('',#324,#261,#262);
#220=AXIS2_PLACEMENT_3D('',#325,#263,#264);
#221=AXIS2_PLACEMENT_3D('',#326,#265,#266);
#222=AXIS2_PLACEMENT_3D('',#328,#267,#268);
#223=AXIS2_PLACEMENT_3D('',#329,#269,#270);
#224=AXIS2_PLACEMENT_3D('',#331,#271,#272);
#225=AXIS2_PLACEMENT_3D('',#333,#273,#274);
#226=AXIS2_PLACEMENT_3D('',#334,#275,#276);
#227=AXIS2_PLACEMENT_3D('',#335,#277,#278);
#228=AXIS2_PLACEMENT_3D('',#337,#279,#280);
#229=AXIS2_PLACEMENT_3D('',#339,#281,#282);
#230=AXIS2_PLACEMENT_3D('',#340,#283,#284);
#231=AXIS2_PLACEMENT_3D('',#342,#285,#286);
#232=AXIS2_PLACEMENT_3D('',#343,#287,#288);
#233=AXIS2_PLACEMENT_3D('',#344,#289,#290);
#234=AXIS2_PLACEMENT_3D('',#346,#291,#292);
#235=AXIS2_PLACEMENT_3D('',#347,#293,#294);
#236=AXIS2_PLACEMENT_3D('',#349,#295,#296);
#237=AXIS2_PLACEMENT_3D('',#351,#297,#298);
#238=AXIS2_PLACEMENT_3D('',#352,#299,#300);
#239=AXIS2_PLACEMENT_3D('',#354,#301,#302);
#240=AXIS2_PLACEMENT_3D('',#355,#303,#304);
#241=AXIS2_PLACEMENT_3D('',#356,#305,#306);
#242=AXIS2_PLACEMENT_3D('',#357,#307,#308);
#243=DIRECTION('axis',(0.,0.,1.));
#244=DIRECTION('refdir',(1.,0.,0.));
#245=DIRECTION('center_axis',(0.,0.,1.));
#246=DIRECTION('ref_axis',(1.,0.,0.));
#247=DIRECTION('center_axis',(0.,0.,1.));
#248=DIRECTION('ref_axis',(1.,0.,0.));
#249=DIRECTION('center_axis',(0.,0.,-1.));
#250=DIRECTION('ref_axis',(1.,0.,0.));
#251=DIRECTION('center_axis',(0.,0.,-1.));
#252=DIRECTION('ref_axis',(-1.,0.,0.));
#253=DIRECTION('center_axis',(0.,0.,1.));
#254=DIRECTION('ref_axis',(-1.,0.,0.));
#255=DIRECTION('center_axis',(0.,0.,1.));
#256=DIRECTION('ref_axis',(-1.,0.,0.));
#257=DIRECTION('center_axis',(0.,0.,-1.));
#258=DIRECTION('ref_axis',(-1.,0.,0.));
#259=DIRECTION('center_axis',(0.,0.,1.));
#260=DIRECTION('ref_axis',(-1.,0.,0.));
#261=DIRECTION('center_axis',(0.,0.,-1.));
#262=DIRECTION('ref_axis',(-1.,0.,0.));
#263=DIRECTION('center_axis',(0.,0.,-1.));
#264=DIRECTION('ref_axis',(-1.,0.,0.));
#265=DIRECTION('center_axis',(0.,0.,-1.));
#266=DIRECTION('ref_axis',(-1.,0.,0.));
#267=DIRECTION('center_axis',(0.,0.,-1.));
#268=DIRECTION('ref_axis',(-1.,0.,0.));
#269=DIRECTION('center_axis',(0.,0.,-1.));
#270=DIRECTION('ref_axis',(1.,0.,0.));
#271=DIRECTION('center_axis',(0.,0.,1.));
#272=DIRECTION('ref_axis',(1.,0.,0.));
#273=DIRECTION('center_axis',(0.,0.,1.));
#274=DIRECTION('ref_axis',(1.,0.,0.));
#275=DIRECTION('center_axis',(0.,0.,1.));
#276=DIRECTION('ref_axis',(1.,0.,0.));
#277=DIRECTION('center_axis',(0.,0.,1.));
#278=DIRECTION('ref_axis',(1.,0.,0.));
#279=DIRECTION('center_axis',(0.,0.,1.));
#280=DIRECTION('ref_axis',(1.,0.,0.));
#281=DIRECTION('center_axis',(0.,0.,1.));
#282=DIRECTION('ref_axis',(1.,0.,0.));
#283=DIRECTION('center_axis',(0.,0.,-1.));
#284=DIRECTION('ref_axis',(1.,0.,0.));
#285=DIRECTION('center_axis',(0.,0.,1.));
#286=DIRECTION('ref_axis',(1.,0.,0.));
#287=DIRECTION('center_axis',(0.,0.,1.));
#288=DIRECTION('ref_axis',(1.,0.,0.));
#289=DIRECTION('center_axis',(0.,0.,-1.));
#290=DIRECTION('ref_axis',(1.,0.,0.));
#291=DIRECTION('center_axis',(0.,0.,1.));
#292=DIRECTION('ref_axis',(1.,0.,0.));
#293=DIRECTION('center_axis',(0.,0.,1.));
#294=DIRECTION('ref_axis',(0.,1.,4.14630558854334E-17));
#295=DIRECTION('center_axis',(0.,0.,-1.));
#296=DIRECTION('ref_axis',(-1.,0.,0.));
#297=DIRECTION('center_axis',(0.,0.,-1.));
#298=DIRECTION('ref_axis',(-1.,0.,0.));
#299=DIRECTION('center_axis',(0.,0.,-1.));
#300=DIRECTION('ref_axis',(-1.,0.,0.));
#301=DIRECTION('center_axis',(0.,0.,1.));
#302=DIRECTION('ref_axis',(-1.,0.,0.));
#303=DIRECTION('center_axis',(0.,0.,-1.));
#304=DIRECTION('ref_axis',(-1.,0.,0.));
#305=DIRECTION('center_axis',(0.,0.,1.));
#306=DIRECTION('ref_axis',(-1.,0.,0.));
#307=DIRECTION('center_axis',(0.,0.,-1.));
#308=DIRECTION('ref_axis',(-1.,0.,0.));
#309=CARTESIAN_POINT('',(0.,0.,0.));
#310=CARTESIAN_POINT('Origin',(0.,0.,-1.90664747797933));
#311=CARTESIAN_POINT('',(-0.1325,-1.62260341881465E-17,-1.03));
#312=CARTESIAN_POINT('Origin',(0.,0.,-1.03));
#313=CARTESIAN_POINT('',(0.1325,0.,0.12));
#314=CARTESIAN_POINT('Origin',(0.,0.,0.12));
#315=CARTESIAN_POINT('Origin',(0.,0.,0.12));
#316=CARTESIAN_POINT('',(0.2445,2.99416253509571E-17,0.02));
#317=CARTESIAN_POINT('Origin',(0.,0.,0.02));
#318=CARTESIAN_POINT('',(0.2445,2.99416253509571E-17,0.12));
#319=CARTESIAN_POINT('Origin',(0.,0.,0.12));
#320=CARTESIAN_POINT('Origin',(0.,0.,0.12));
#321=CARTESIAN_POINT('',(0.3385,4.14529250768875E-17,0.02));
#322=CARTESIAN_POINT('Origin',(0.,0.,0.02));
#323=CARTESIAN_POINT('',(0.3385,4.14529250768875E-17,0.12));
#324=CARTESIAN_POINT('Origin',(0.,0.,0.12));
#325=CARTESIAN_POINT('Origin',(0.,0.,0.02));
#326=CARTESIAN_POINT('Origin',(0.,0.,0.12));
#327=CARTESIAN_POINT('',(0.59,7.22517748755203E-17,0.12));
#328=CARTESIAN_POINT('Origin',(0.,0.,0.12));
#329=CARTESIAN_POINT('Origin',(0.,0.,-0.905));
#330=CARTESIAN_POINT('',(-0.2095,2.56555031125788E-17,-1.03));
#331=CARTESIAN_POINT('Origin',(0.,0.,-1.03));
#332=CARTESIAN_POINT('',(-0.2095,2.56555031125788E-17,-0.905));
#333=CARTESIAN_POINT('Origin',(0.,0.,-0.905));
#334=CARTESIAN_POINT('Origin',(0.,0.,-1.03));
#335=CARTESIAN_POINT('Origin',(0.,0.,-0.655));
#336=CARTESIAN_POINT('',(-0.25,3.06151588455594E-17,-0.655));
#337=CARTESIAN_POINT('Origin',(0.,0.,-0.655));
#338=CARTESIAN_POINT('',(-0.2095,2.56555031125788E-17,-0.655));
#339=CARTESIAN_POINT('Origin',(0.,0.,-0.655));
#340=CARTESIAN_POINT('Origin',(0.,0.,-0.655));
#341=CARTESIAN_POINT('',(-0.25,3.06151588455594E-17,-0.905));
#342=CARTESIAN_POINT('Origin',(0.,0.,-0.905));
#343=CARTESIAN_POINT('Origin',(0.,0.,-0.905));
#344=CARTESIAN_POINT('Origin',(0.,0.,-0.53));
#345=CARTESIAN_POINT('',(-0.2095,2.56555031125788E-17,-0.53));
#346=CARTESIAN_POINT('Origin',(0.,0.,-0.53));
#347=CARTESIAN_POINT('Origin',(0.,0.,-0.0462882229924765));
#348=CARTESIAN_POINT('',(0.,0.2445,-0.0925764459849529));
#349=CARTESIAN_POINT('Origin',(0.,0.,-0.0925764459849529));
#350=CARTESIAN_POINT('',(0.59,7.22517748755203E-17,0.));
#351=CARTESIAN_POINT('Origin',(0.,0.,0.));
#352=CARTESIAN_POINT('Origin',(0.,0.,0.12));
#353=CARTESIAN_POINT('',(0.2445,2.99416253509571E-17,-0.53));
#354=CARTESIAN_POINT('Origin',(0.,0.,-0.53));
#355=CARTESIAN_POINT('Origin',(0.,0.,-0.53));
#356=CARTESIAN_POINT('Origin',(0.,0.,0.));
#357=CARTESIAN_POINT('Origin',(0.,0.,0.12));
#358=UNCERTAINTY_MEASURE_WITH_UNIT(LENGTH_MEASURE(0.000393700787401575),
#363,'DISTANCE_ACCURACY_VALUE',
'Maximum model space distance between geometric entities at asserted c
onnectivities');
#359=UNCERTAINTY_MEASURE_WITH_UNIT(LENGTH_MEASURE(0.000393700787401575),
#363,'DISTANCE_ACCURACY_VALUE',
'Maximum model space distance between geometric entities at asserted c
onnectivities');
#360=(
GEOMETRIC_REPRESENTATION_CONTEXT(3)
GLOBAL_UNCERTAINTY_ASSIGNED_CONTEXT((#358))
GLOBAL_UNIT_ASSIGNED_CONTEXT((#363,#368,#367))
REPRESENTATION_CONTEXT('','3D')
);
#361=(
GEOMETRIC_REPRESENTATION_CONTEXT(3)
GLOBAL_UNCERTAINTY_ASSIGNED_CONTEXT((#359))
GLOBAL_UNIT_ASSIGNED_CONTEXT((#363,#368,#367))
REPRESENTATION_CONTEXT('','3D')
);
#362=DIMENSIONAL_EXPONENTS(1.,0.,0.,0.,0.,0.,0.);
#363=(
CONVERSION_BASED_UNIT('inch',#366)
LENGTH_UNIT()
NAMED_UNIT(#362)
);
#364=(
LENGTH_UNIT()
NAMED_UNIT(*)
SI_UNIT(.MILLI.,.METRE.)
);
#365=(
LENGTH_UNIT()
NAMED_UNIT(*)
SI_UNIT(.CENTI.,.METRE.)
);
#366=LENGTH_MEASURE_WITH_UNIT(LENGTH_MEASURE(25.4),#364);
#367=(
NAMED_UNIT(*)
SI_UNIT($,.STERADIAN.)
SOLID_ANGLE_UNIT()
);
#368=(
NAMED_UNIT(*)
PLANE_ANGLE_UNIT()
SI_UNIT($,.RADIAN.)
);
#369=SHAPE_DEFINITION_REPRESENTATION(#370,#371);
#370=PRODUCT_DEFINITION_SHAPE('',$,#373);
#371=SHAPE_REPRESENTATION('',(#210),#360);
#372=PRODUCT_DEFINITION_CONTEXT('part definition',#377,'design');
#373=PRODUCT_DEFINITION('1000002','1000002',#374,#372);
#374=PRODUCT_DEFINITION_FORMATION('A',$,#379);
#375=PRODUCT_RELATED_PRODUCT_CATEGORY('1000002','1000002',(#379));
#376=APPLICATION_PROTOCOL_DEFINITION('international standard',
'automotive_design',2009,#377);
#377=APPLICATION_CONTEXT(
'Core Data for Automotive Mechanical Design Process');
#378=PRODUCT_CONTEXT('part definition',#377,'mechanical');
#379=PRODUCT('1000002','1000002','QF16-Q25',(#378));
#380=PRESENTATION_STYLE_ASSIGNMENT((#381));
#381=SURFACE_STYLE_USAGE(.BOTH.,#382);
#382=SURFACE_SIDE_STYLE('',(#383));
#383=SURFACE_STYLE_FILL_AREA(#384);
#384=FILL_AREA_STYLE('',(#385));
#385=FILL_AREA_STYLE_COLOUR('',#386);
#386=COLOUR_RGB('',0.87843137254902,0.874509803921569,0.858823529411765);
ENDSEC;
END-ISO-10303-21;
