ISO-10303-21;
HEADER;
/* Generated by software containing ST-Developer
 * from STEP Tools, Inc. (www.steptools.com) 
 */

FILE_DESCRIPTION(
/* description */ (''),
/* implementation_level */ '2;1');

FILE_NAME(
/* name */ 'G:\\drawings\\part models\\1000118a.stp',
/* time_stamp */ '2019-08-01T09:17:46-04:00',
/* author */ ('Glen_C'),
/* organization */ (''),
/* preprocessor_version */ 'ST-DEVELOPER v16.13',
/* originating_system */ 'Autodesk Inventor 2018',
/* authorisation */ '');

FILE_SCHEMA (('AUTOMOTIVE_DESIGN { 1 0 10303 214 3 1 1 }'));
ENDSEC;

DATA;
#10=MECHANICAL_DESIGN_GEOMETRIC_PRESENTATION_REPRESENTATION('',(#314,#309,
#308,#304,#307,#305,#313,#303,#306,#302,#310,#311,#312,#316,#319,#327,#328,
#329,#317,#321,#315,#324,#322,#323,#325,#318,#326,#320,#333,#332,#330,#331),
#648);
#11=SHAPE_REPRESENTATION_RELATIONSHIP('SRR','None',#658,#12);
#12=ADVANCED_BREP_SHAPE_REPRESENTATION('',(#15,#16,#17,#18),#647);
#13=TOROIDAL_SURFACE('',#437,0.561,0.0325);
#14=TOROIDAL_SURFACE('',#441,0.5325,0.0325);
#15=MANIFOLD_SOLID_BREP('Solid1',#362);
#16=MANIFOLD_SOLID_BREP('Solid2',#363);
#17=MANIFOLD_SOLID_BREP('Solid3',#364);
#18=MANIFOLD_SOLID_BREP('Solid4',#365);
#19=PLANE('',#390);
#20=PLANE('',#400);
#21=PLANE('',#403);
#22=PLANE('',#404);
#23=PLANE('',#414);
#24=PLANE('',#415);
#25=PLANE('',#421);
#26=PLANE('',#425);
#27=PLANE('',#433);
#28=PLANE('',#434);
#29=PLANE('',#439);
#30=CYLINDRICAL_SURFACE('',#388,0.6865);
#31=CYLINDRICAL_SURFACE('',#395,0.5075);
#32=CYLINDRICAL_SURFACE('',#398,0.5625);
#33=CYLINDRICAL_SURFACE('',#401,0.647);
#34=CYLINDRICAL_SURFACE('',#407,0.5935);
#35=CYLINDRICAL_SURFACE('',#409,0.5075);
#36=CYLINDRICAL_SURFACE('',#411,0.65);
#37=CYLINDRICAL_SURFACE('',#419,0.8125);
#38=CYLINDRICAL_SURFACE('',#429,0.6605);
#39=CYLINDRICAL_SURFACE('',#431,0.5075);
#40=FACE_BOUND('',#97,.T.);
#41=FACE_BOUND('',#99,.T.);
#42=FACE_BOUND('',#101,.T.);
#43=FACE_BOUND('',#103,.T.);
#44=FACE_BOUND('',#105,.T.);
#45=FACE_BOUND('',#107,.T.);
#46=FACE_BOUND('',#109,.T.);
#47=FACE_BOUND('',#111,.T.);
#48=FACE_BOUND('',#113,.T.);
#49=FACE_BOUND('',#115,.T.);
#50=FACE_BOUND('',#117,.T.);
#51=FACE_BOUND('',#119,.T.);
#52=FACE_BOUND('',#121,.T.);
#53=FACE_BOUND('',#123,.T.);
#54=FACE_BOUND('',#125,.T.);
#55=FACE_BOUND('',#127,.T.);
#56=FACE_BOUND('',#129,.T.);
#57=FACE_BOUND('',#131,.T.);
#58=FACE_BOUND('',#133,.T.);
#59=FACE_BOUND('',#135,.T.);
#60=FACE_BOUND('',#137,.T.);
#61=FACE_BOUND('',#139,.T.);
#62=FACE_BOUND('',#141,.T.);
#63=FACE_BOUND('',#143,.T.);
#64=FACE_BOUND('',#145,.T.);
#65=FACE_BOUND('',#147,.T.);
#66=FACE_BOUND('',#149,.T.);
#67=FACE_BOUND('',#151,.T.);
#68=FACE_OUTER_BOUND('',#96,.T.);
#69=FACE_OUTER_BOUND('',#98,.T.);
#70=FACE_OUTER_BOUND('',#100,.T.);
#71=FACE_OUTER_BOUND('',#102,.T.);
#72=FACE_OUTER_BOUND('',#104,.T.);
#73=FACE_OUTER_BOUND('',#106,.T.);
#74=FACE_OUTER_BOUND('',#108,.T.);
#75=FACE_OUTER_BOUND('',#110,.T.);
#76=FACE_OUTER_BOUND('',#112,.T.);
#77=FACE_OUTER_BOUND('',#114,.T.);
#78=FACE_OUTER_BOUND('',#116,.T.);
#79=FACE_OUTER_BOUND('',#118,.T.);
#80=FACE_OUTER_BOUND('',#120,.T.);
#81=FACE_OUTER_BOUND('',#122,.T.);
#82=FACE_OUTER_BOUND('',#124,.T.);
#83=FACE_OUTER_BOUND('',#126,.T.);
#84=FACE_OUTER_BOUND('',#128,.T.);
#85=FACE_OUTER_BOUND('',#130,.T.);
#86=FACE_OUTER_BOUND('',#132,.T.);
#87=FACE_OUTER_BOUND('',#134,.T.);
#88=FACE_OUTER_BOUND('',#136,.T.);
#89=FACE_OUTER_BOUND('',#138,.T.);
#90=FACE_OUTER_BOUND('',#140,.T.);
#91=FACE_OUTER_BOUND('',#142,.T.);
#92=FACE_OUTER_BOUND('',#144,.T.);
#93=FACE_OUTER_BOUND('',#146,.T.);
#94=FACE_OUTER_BOUND('',#148,.T.);
#95=FACE_OUTER_BOUND('',#150,.T.);
#96=EDGE_LOOP('',(#239));
#97=EDGE_LOOP('',(#240));
#98=EDGE_LOOP('',(#241));
#99=EDGE_LOOP('',(#242));
#100=EDGE_LOOP('',(#243));
#101=EDGE_LOOP('',(#244));
#102=EDGE_LOOP('',(#245));
#103=EDGE_LOOP('',(#246,#247));
#104=EDGE_LOOP('',(#248));
#105=EDGE_LOOP('',(#249));
#106=EDGE_LOOP('',(#250));
#107=EDGE_LOOP('',(#251));
#108=EDGE_LOOP('',(#252));
#109=EDGE_LOOP('',(#253));
#110=EDGE_LOOP('',(#254,#255));
#111=EDGE_LOOP('',(#256));
#112=EDGE_LOOP('',(#257));
#113=EDGE_LOOP('',(#258));
#114=EDGE_LOOP('',(#259));
#115=EDGE_LOOP('',(#260));
#116=EDGE_LOOP('',(#261));
#117=EDGE_LOOP('',(#262));
#118=EDGE_LOOP('',(#263));
#119=EDGE_LOOP('',(#264));
#120=EDGE_LOOP('',(#265));
#121=EDGE_LOOP('',(#266));
#122=EDGE_LOOP('',(#267));
#123=EDGE_LOOP('',(#268));
#124=EDGE_LOOP('',(#269));
#125=EDGE_LOOP('',(#270));
#126=EDGE_LOOP('',(#271));
#127=EDGE_LOOP('',(#272));
#128=EDGE_LOOP('',(#273));
#129=EDGE_LOOP('',(#274));
#130=EDGE_LOOP('',(#275));
#131=EDGE_LOOP('',(#276));
#132=EDGE_LOOP('',(#277));
#133=EDGE_LOOP('',(#278));
#134=EDGE_LOOP('',(#279));
#135=EDGE_LOOP('',(#280));
#136=EDGE_LOOP('',(#281));
#137=EDGE_LOOP('',(#282));
#138=EDGE_LOOP('',(#283));
#139=EDGE_LOOP('',(#284));
#140=EDGE_LOOP('',(#285));
#141=EDGE_LOOP('',(#286));
#142=EDGE_LOOP('',(#287));
#143=EDGE_LOOP('',(#288));
#144=EDGE_LOOP('',(#289));
#145=EDGE_LOOP('',(#290));
#146=EDGE_LOOP('',(#291));
#147=EDGE_LOOP('',(#292));
#148=EDGE_LOOP('',(#293));
#149=EDGE_LOOP('',(#294));
#150=EDGE_LOOP('',(#295));
#151=EDGE_LOOP('',(#296));
#152=CIRCLE('',#386,0.647);
#153=CIRCLE('',#387,0.6865);
#154=CIRCLE('',#389,0.6865);
#155=CIRCLE('',#391,0.5625);
#156=CIRCLE('',#393,0.647);
#157=CIRCLE('',#394,0.647);
#158=CIRCLE('',#396,0.5075);
#159=CIRCLE('',#397,0.5075);
#160=CIRCLE('',#399,0.5625);
#161=CIRCLE('',#402,0.647);
#162=CIRCLE('',#405,0.5935);
#163=CIRCLE('',#406,0.5075);
#164=CIRCLE('',#408,0.5935);
#165=CIRCLE('',#410,0.5075);
#166=CIRCLE('',#412,0.65);
#167=CIRCLE('',#413,0.65);
#168=CIRCLE('',#417,0.8125);
#169=CIRCLE('',#418,0.7825);
#170=CIRCLE('',#420,0.8125);
#171=CIRCLE('',#422,0.5075);
#172=CIRCLE('',#424,0.7825);
#173=CIRCLE('',#426,0.6905);
#174=CIRCLE('',#428,0.6605);
#175=CIRCLE('',#430,0.6605);
#176=CIRCLE('',#432,0.5075);
#177=CIRCLE('',#435,0.561);
#178=CIRCLE('',#436,0.5325);
#179=CIRCLE('',#438,0.561);
#180=CIRCLE('',#440,0.5325);
#181=VERTEX_POINT('',#560);
#182=VERTEX_POINT('',#562);
#183=VERTEX_POINT('',#565);
#184=VERTEX_POINT('',#568);
#185=VERTEX_POINT('',#571);
#186=VERTEX_POINT('',#572);
#187=VERTEX_POINT('',#576);
#188=VERTEX_POINT('',#578);
#189=VERTEX_POINT('',#581);
#190=VERTEX_POINT('',#585);
#191=VERTEX_POINT('',#589);
#192=VERTEX_POINT('',#591);
#193=VERTEX_POINT('',#594);
#194=VERTEX_POINT('',#597);
#195=VERTEX_POINT('',#600);
#196=VERTEX_POINT('',#602);
#197=VERTEX_POINT('',#607);
#198=VERTEX_POINT('',#609);
#199=VERTEX_POINT('',#612);
#200=VERTEX_POINT('',#615);
#201=VERTEX_POINT('',#618);
#202=VERTEX_POINT('',#621);
#203=VERTEX_POINT('',#624);
#204=VERTEX_POINT('',#627);
#205=VERTEX_POINT('',#630);
#206=VERTEX_POINT('',#634);
#207=VERTEX_POINT('',#636);
#208=VERTEX_POINT('',#639);
#209=VERTEX_POINT('',#642);
#210=EDGE_CURVE('',#181,#181,#152,.T.);
#211=EDGE_CURVE('',#182,#182,#153,.T.);
#212=EDGE_CURVE('',#183,#183,#154,.T.);
#213=EDGE_CURVE('',#184,#184,#155,.T.);
#214=EDGE_CURVE('',#185,#186,#156,.T.);
#215=EDGE_CURVE('',#186,#185,#157,.T.);
#216=EDGE_CURVE('',#187,#187,#158,.T.);
#217=EDGE_CURVE('',#188,#188,#159,.T.);
#218=EDGE_CURVE('',#189,#189,#160,.T.);
#219=EDGE_CURVE('',#190,#190,#161,.T.);
#220=EDGE_CURVE('',#191,#191,#162,.T.);
#221=EDGE_CURVE('',#192,#192,#163,.T.);
#222=EDGE_CURVE('',#193,#193,#164,.T.);
#223=EDGE_CURVE('',#194,#194,#165,.T.);
#224=EDGE_CURVE('',#195,#195,#166,.T.);
#225=EDGE_CURVE('',#196,#196,#167,.T.);
#226=EDGE_CURVE('',#197,#197,#168,.T.);
#227=EDGE_CURVE('',#198,#198,#169,.T.);
#228=EDGE_CURVE('',#199,#199,#170,.T.);
#229=EDGE_CURVE('',#200,#200,#171,.T.);
#230=EDGE_CURVE('',#201,#201,#172,.T.);
#231=EDGE_CURVE('',#202,#202,#173,.T.);
#232=EDGE_CURVE('',#203,#203,#174,.T.);
#233=EDGE_CURVE('',#204,#204,#175,.T.);
#234=EDGE_CURVE('',#205,#205,#176,.T.);
#235=EDGE_CURVE('',#206,#206,#177,.T.);
#236=EDGE_CURVE('',#207,#207,#178,.T.);
#237=EDGE_CURVE('',#208,#208,#179,.T.);
#238=EDGE_CURVE('',#209,#209,#180,.T.);
#239=ORIENTED_EDGE('',*,*,#210,.T.);
#240=ORIENTED_EDGE('',*,*,#211,.T.);
#241=ORIENTED_EDGE('',*,*,#212,.F.);
#242=ORIENTED_EDGE('',*,*,#211,.F.);
#243=ORIENTED_EDGE('',*,*,#210,.F.);
#244=ORIENTED_EDGE('',*,*,#213,.T.);
#245=ORIENTED_EDGE('',*,*,#212,.T.);
#246=ORIENTED_EDGE('',*,*,#214,.F.);
#247=ORIENTED_EDGE('',*,*,#215,.F.);
#248=ORIENTED_EDGE('',*,*,#216,.F.);
#249=ORIENTED_EDGE('',*,*,#217,.F.);
#250=ORIENTED_EDGE('',*,*,#218,.T.);
#251=ORIENTED_EDGE('',*,*,#213,.F.);
#252=ORIENTED_EDGE('',*,*,#218,.F.);
#253=ORIENTED_EDGE('',*,*,#216,.T.);
#254=ORIENTED_EDGE('',*,*,#214,.T.);
#255=ORIENTED_EDGE('',*,*,#215,.T.);
#256=ORIENTED_EDGE('',*,*,#219,.T.);
#257=ORIENTED_EDGE('',*,*,#219,.F.);
#258=ORIENTED_EDGE('',*,*,#217,.T.);
#259=ORIENTED_EDGE('',*,*,#220,.T.);
#260=ORIENTED_EDGE('',*,*,#221,.F.);
#261=ORIENTED_EDGE('',*,*,#222,.F.);
#262=ORIENTED_EDGE('',*,*,#220,.F.);
#263=ORIENTED_EDGE('',*,*,#223,.F.);
#264=ORIENTED_EDGE('',*,*,#221,.T.);
#265=ORIENTED_EDGE('',*,*,#224,.T.);
#266=ORIENTED_EDGE('',*,*,#225,.F.);
#267=ORIENTED_EDGE('',*,*,#224,.F.);
#268=ORIENTED_EDGE('',*,*,#222,.T.);
#269=ORIENTED_EDGE('',*,*,#225,.T.);
#270=ORIENTED_EDGE('',*,*,#223,.T.);
#271=ORIENTED_EDGE('',*,*,#226,.T.);
#272=ORIENTED_EDGE('',*,*,#227,.T.);
#273=ORIENTED_EDGE('',*,*,#228,.F.);
#274=ORIENTED_EDGE('',*,*,#226,.F.);
#275=ORIENTED_EDGE('',*,*,#227,.F.);
#276=ORIENTED_EDGE('',*,*,#229,.T.);
#277=ORIENTED_EDGE('',*,*,#230,.T.);
#278=ORIENTED_EDGE('',*,*,#228,.T.);
#279=ORIENTED_EDGE('',*,*,#230,.F.);
#280=ORIENTED_EDGE('',*,*,#231,.F.);
#281=ORIENTED_EDGE('',*,*,#232,.T.);
#282=ORIENTED_EDGE('',*,*,#231,.T.);
#283=ORIENTED_EDGE('',*,*,#233,.F.);
#284=ORIENTED_EDGE('',*,*,#232,.F.);
#285=ORIENTED_EDGE('',*,*,#234,.F.);
#286=ORIENTED_EDGE('',*,*,#229,.F.);
#287=ORIENTED_EDGE('',*,*,#233,.T.);
#288=ORIENTED_EDGE('',*,*,#234,.T.);
#289=ORIENTED_EDGE('',*,*,#235,.F.);
#290=ORIENTED_EDGE('',*,*,#236,.F.);
#291=ORIENTED_EDGE('',*,*,#235,.T.);
#292=ORIENTED_EDGE('',*,*,#237,.T.);
#293=ORIENTED_EDGE('',*,*,#237,.F.);
#294=ORIENTED_EDGE('',*,*,#238,.F.);
#295=ORIENTED_EDGE('',*,*,#236,.T.);
#296=ORIENTED_EDGE('',*,*,#238,.T.);
#297=CONICAL_SURFACE('',#385,0.66675,0.785398163397448);
#298=CONICAL_SURFACE('',#392,0.66675,0.785398163397448);
#299=CONICAL_SURFACE('',#416,0.7975,0.785398163397449);
#300=CONICAL_SURFACE('',#423,0.7975,0.785398163397448);
#301=CONICAL_SURFACE('',#427,0.6755,0.785398163397448);
#302=STYLED_ITEM('',(#668),#334);
#303=STYLED_ITEM('',(#668),#335);
#304=STYLED_ITEM('',(#668),#336);
#305=STYLED_ITEM('',(#668),#337);
#306=STYLED_ITEM('',(#668),#338);
#307=STYLED_ITEM('',(#668),#339);
#308=STYLED_ITEM('',(#668),#340);
#309=STYLED_ITEM('',(#668),#341);
#310=STYLED_ITEM('',(#668),#342);
#311=STYLED_ITEM('',(#667),#15);
#312=STYLED_ITEM('',(#669),#343);
#313=STYLED_ITEM('',(#669),#344);
#314=STYLED_ITEM('',(#669),#345);
#315=STYLED_ITEM('',(#669),#346);
#316=STYLED_ITEM('',(#669),#347);
#317=STYLED_ITEM('',(#669),#348);
#318=STYLED_ITEM('',(#667),#16);
#319=STYLED_ITEM('',(#669),#349);
#320=STYLED_ITEM('',(#670),#350);
#321=STYLED_ITEM('',(#669),#351);
#322=STYLED_ITEM('',(#669),#352);
#323=STYLED_ITEM('',(#669),#353);
#324=STYLED_ITEM('',(#669),#354);
#325=STYLED_ITEM('',(#669),#355);
#326=STYLED_ITEM('',(#669),#356);
#327=STYLED_ITEM('',(#669),#357);
#328=STYLED_ITEM('',(#667),#17);
#329=STYLED_ITEM('',(#671),#358);
#330=STYLED_ITEM('',(#671),#359);
#331=STYLED_ITEM('',(#671),#360);
#332=STYLED_ITEM('',(#671),#361);
#333=STYLED_ITEM('',(#667),#18);
#334=ADVANCED_FACE('',(#68,#40),#297,.T.);
#335=ADVANCED_FACE('',(#69,#41),#30,.T.);
#336=ADVANCED_FACE('',(#70,#42),#19,.F.);
#337=ADVANCED_FACE('',(#71,#43),#298,.T.);
#338=ADVANCED_FACE('',(#72,#44),#31,.F.);
#339=ADVANCED_FACE('',(#73,#45),#32,.T.);
#340=ADVANCED_FACE('',(#74,#46),#20,.T.);
#341=ADVANCED_FACE('',(#75,#47),#33,.T.);
#342=ADVANCED_FACE('',(#76,#48),#21,.F.);
#343=ADVANCED_FACE('',(#77,#49),#22,.T.);
#344=ADVANCED_FACE('',(#78,#50),#34,.F.);
#345=ADVANCED_FACE('',(#79,#51),#35,.F.);
#346=ADVANCED_FACE('',(#80,#52),#36,.T.);
#347=ADVANCED_FACE('',(#81,#53),#23,.F.);
#348=ADVANCED_FACE('',(#82,#54),#24,.T.);
#349=ADVANCED_FACE('',(#83,#55),#299,.T.);
#350=ADVANCED_FACE('',(#84,#56),#37,.T.);
#351=ADVANCED_FACE('',(#85,#57),#25,.T.);
#352=ADVANCED_FACE('',(#86,#58),#300,.T.);
#353=ADVANCED_FACE('',(#87,#59),#26,.F.);
#354=ADVANCED_FACE('',(#88,#60),#301,.F.);
#355=ADVANCED_FACE('',(#89,#61),#38,.F.);
#356=ADVANCED_FACE('',(#90,#62),#39,.F.);
#357=ADVANCED_FACE('',(#91,#63),#27,.T.);
#358=ADVANCED_FACE('',(#92,#64),#28,.T.);
#359=ADVANCED_FACE('',(#93,#65),#13,.T.);
#360=ADVANCED_FACE('',(#94,#66),#29,.F.);
#361=ADVANCED_FACE('',(#95,#67),#14,.T.);
#362=CLOSED_SHELL('',(#334,#335,#336,#337,#338,#339,#340,#341,#342));
#363=CLOSED_SHELL('',(#343,#344,#345,#346,#347,#348));
#364=CLOSED_SHELL('',(#349,#350,#351,#352,#353,#354,#355,#356,#357));
#365=CLOSED_SHELL('',(#358,#359,#360,#361));
#366=DERIVED_UNIT_ELEMENT(#368,0.);
#367=DERIVED_UNIT_ELEMENT(#652,0.);
#368=(
MASS_UNIT()
NAMED_UNIT(*)
SI_UNIT($,.GRAM.)
);
#369=DERIVED_UNIT((#366,#367));
#370=MEASURE_REPRESENTATION_ITEM('density measure',
POSITIVE_RATIO_MEASURE(1.),#369);
#371=PROPERTY_DEFINITION_REPRESENTATION(#376,#373);
#372=PROPERTY_DEFINITION_REPRESENTATION(#377,#374);
#373=REPRESENTATION('material name',(#375),#647);
#374=REPRESENTATION('density',(#370),#647);
#375=DESCRIPTIVE_REPRESENTATION_ITEM('Generic','Generic');
#376=PROPERTY_DEFINITION('material property','material name',#660);
#377=PROPERTY_DEFINITION('material property','density of part',#660);
#378=DATE_TIME_ROLE('creation_date');
#379=APPLIED_DATE_AND_TIME_ASSIGNMENT(#380,#378,(#660));
#380=DATE_AND_TIME(#381,#382);
#381=CALENDAR_DATE(2019,1,8);
#382=LOCAL_TIME(13,17,35.,#383);
#383=COORDINATED_UNIVERSAL_TIME_OFFSET(0,0,.BEHIND.);
#384=AXIS2_PLACEMENT_3D('placement',#558,#442,#443);
#385=AXIS2_PLACEMENT_3D('',#559,#444,#445);
#386=AXIS2_PLACEMENT_3D('',#561,#446,#447);
#387=AXIS2_PLACEMENT_3D('',#563,#448,#449);
#388=AXIS2_PLACEMENT_3D('',#564,#450,#451);
#389=AXIS2_PLACEMENT_3D('',#566,#452,#453);
#390=AXIS2_PLACEMENT_3D('',#567,#454,#455);
#391=AXIS2_PLACEMENT_3D('',#569,#456,#457);
#392=AXIS2_PLACEMENT_3D('',#570,#458,#459);
#393=AXIS2_PLACEMENT_3D('',#573,#460,#461);
#394=AXIS2_PLACEMENT_3D('',#574,#462,#463);
#395=AXIS2_PLACEMENT_3D('',#575,#464,#465);
#396=AXIS2_PLACEMENT_3D('',#577,#466,#467);
#397=AXIS2_PLACEMENT_3D('',#579,#468,#469);
#398=AXIS2_PLACEMENT_3D('',#580,#470,#471);
#399=AXIS2_PLACEMENT_3D('',#582,#472,#473);
#400=AXIS2_PLACEMENT_3D('',#583,#474,#475);
#401=AXIS2_PLACEMENT_3D('',#584,#476,#477);
#402=AXIS2_PLACEMENT_3D('',#586,#478,#479);
#403=AXIS2_PLACEMENT_3D('',#587,#480,#481);
#404=AXIS2_PLACEMENT_3D('',#588,#482,#483);
#405=AXIS2_PLACEMENT_3D('',#590,#484,#485);
#406=AXIS2_PLACEMENT_3D('',#592,#486,#487);
#407=AXIS2_PLACEMENT_3D('',#593,#488,#489);
#408=AXIS2_PLACEMENT_3D('',#595,#490,#491);
#409=AXIS2_PLACEMENT_3D('',#596,#492,#493);
#410=AXIS2_PLACEMENT_3D('',#598,#494,#495);
#411=AXIS2_PLACEMENT_3D('',#599,#496,#497);
#412=AXIS2_PLACEMENT_3D('',#601,#498,#499);
#413=AXIS2_PLACEMENT_3D('',#603,#500,#501);
#414=AXIS2_PLACEMENT_3D('',#604,#502,#503);
#415=AXIS2_PLACEMENT_3D('',#605,#504,#505);
#416=AXIS2_PLACEMENT_3D('',#606,#506,#507);
#417=AXIS2_PLACEMENT_3D('',#608,#508,#509);
#418=AXIS2_PLACEMENT_3D('',#610,#510,#511);
#419=AXIS2_PLACEMENT_3D('',#611,#512,#513);
#420=AXIS2_PLACEMENT_3D('',#613,#514,#515);
#421=AXIS2_PLACEMENT_3D('',#614,#516,#517);
#422=AXIS2_PLACEMENT_3D('',#616,#518,#519);
#423=AXIS2_PLACEMENT_3D('',#617,#520,#521);
#424=AXIS2_PLACEMENT_3D('',#619,#522,#523);
#425=AXIS2_PLACEMENT_3D('',#620,#524,#525);
#426=AXIS2_PLACEMENT_3D('',#622,#526,#527);
#427=AXIS2_PLACEMENT_3D('',#623,#528,#529);
#428=AXIS2_PLACEMENT_3D('',#625,#530,#531);
#429=AXIS2_PLACEMENT_3D('',#626,#532,#533);
#430=AXIS2_PLACEMENT_3D('',#628,#534,#535);
#431=AXIS2_PLACEMENT_3D('',#629,#536,#537);
#432=AXIS2_PLACEMENT_3D('',#631,#538,#539);
#433=AXIS2_PLACEMENT_3D('',#632,#540,#541);
#434=AXIS2_PLACEMENT_3D('',#633,#542,#543);
#435=AXIS2_PLACEMENT_3D('',#635,#544,#545);
#436=AXIS2_PLACEMENT_3D('',#637,#546,#547);
#437=AXIS2_PLACEMENT_3D('',#638,#548,#549);
#438=AXIS2_PLACEMENT_3D('',#640,#550,#551);
#439=AXIS2_PLACEMENT_3D('',#641,#552,#553);
#440=AXIS2_PLACEMENT_3D('',#643,#554,#555);
#441=AXIS2_PLACEMENT_3D('',#644,#556,#557);
#442=DIRECTION('axis',(0.,0.,1.));
#443=DIRECTION('refdir',(1.,0.,0.));
#444=DIRECTION('center_axis',(0.,0.,1.));
#445=DIRECTION('ref_axis',(1.,0.,0.));
#446=DIRECTION('center_axis',(0.,0.,1.));
#447=DIRECTION('ref_axis',(1.,0.,0.));
#448=DIRECTION('center_axis',(0.,0.,-1.));
#449=DIRECTION('ref_axis',(1.,0.,0.));
#450=DIRECTION('center_axis',(0.,0.,-1.));
#451=DIRECTION('ref_axis',(1.,0.,0.));
#452=DIRECTION('center_axis',(0.,0.,1.));
#453=DIRECTION('ref_axis',(1.,0.,0.));
#454=DIRECTION('center_axis',(0.,0.,1.));
#455=DIRECTION('ref_axis',(1.,0.,0.));
#456=DIRECTION('center_axis',(0.,0.,1.));
#457=DIRECTION('ref_axis',(-1.,0.,0.));
#458=DIRECTION('center_axis',(0.,0.,-1.));
#459=DIRECTION('ref_axis',(1.,0.,0.));
#460=DIRECTION('center_axis',(0.,0.,1.));
#461=DIRECTION('ref_axis',(-1.,0.,0.));
#462=DIRECTION('center_axis',(0.,0.,1.));
#463=DIRECTION('ref_axis',(-1.,0.,0.));
#464=DIRECTION('center_axis',(0.,0.,1.));
#465=DIRECTION('ref_axis',(1.,0.,0.));
#466=DIRECTION('center_axis',(0.,0.,1.));
#467=DIRECTION('ref_axis',(1.,0.,0.));
#468=DIRECTION('center_axis',(0.,0.,-1.));
#469=DIRECTION('ref_axis',(1.,0.,0.));
#470=DIRECTION('center_axis',(0.,0.,-1.));
#471=DIRECTION('ref_axis',(-1.,0.,0.));
#472=DIRECTION('center_axis',(0.,0.,1.));
#473=DIRECTION('ref_axis',(-1.,0.,0.));
#474=DIRECTION('center_axis',(0.,0.,-1.));
#475=DIRECTION('ref_axis',(-1.,0.,0.));
#476=DIRECTION('center_axis',(0.,0.,-1.));
#477=DIRECTION('ref_axis',(-1.,0.,0.));
#478=DIRECTION('center_axis',(0.,0.,-1.));
#479=DIRECTION('ref_axis',(-1.,0.,0.));
#480=DIRECTION('center_axis',(0.,0.,-1.));
#481=DIRECTION('ref_axis',(-1.,0.,0.));
#482=DIRECTION('center_axis',(0.,0.,-1.));
#483=DIRECTION('ref_axis',(1.,0.,0.));
#484=DIRECTION('center_axis',(0.,0.,-1.));
#485=DIRECTION('ref_axis',(1.,0.,0.));
#486=DIRECTION('center_axis',(0.,0.,-1.));
#487=DIRECTION('ref_axis',(1.,0.,0.));
#488=DIRECTION('center_axis',(0.,0.,-1.));
#489=DIRECTION('ref_axis',(1.,0.,0.));
#490=DIRECTION('center_axis',(0.,0.,1.));
#491=DIRECTION('ref_axis',(1.,0.,0.));
#492=DIRECTION('center_axis',(0.,0.,-1.));
#493=DIRECTION('ref_axis',(1.,0.,0.));
#494=DIRECTION('center_axis',(0.,0.,-1.));
#495=DIRECTION('ref_axis',(1.,0.,0.));
#496=DIRECTION('center_axis',(0.,0.,-1.));
#497=DIRECTION('ref_axis',(-1.,0.,0.));
#498=DIRECTION('center_axis',(0.,0.,1.));
#499=DIRECTION('ref_axis',(-1.,0.,0.));
#500=DIRECTION('center_axis',(0.,0.,1.));
#501=DIRECTION('ref_axis',(-1.,0.,0.));
#502=DIRECTION('center_axis',(0.,0.,1.));
#503=DIRECTION('ref_axis',(-1.,0.,0.));
#504=DIRECTION('center_axis',(0.,0.,1.));
#505=DIRECTION('ref_axis',(-1.,0.,0.));
#506=DIRECTION('center_axis',(0.,0.,-1.));
#507=DIRECTION('ref_axis',(-1.,0.,0.));
#508=DIRECTION('center_axis',(0.,0.,1.));
#509=DIRECTION('ref_axis',(-1.,0.,0.));
#510=DIRECTION('center_axis',(0.,0.,-1.));
#511=DIRECTION('ref_axis',(-1.,0.,0.));
#512=DIRECTION('center_axis',(0.,0.,-1.));
#513=DIRECTION('ref_axis',(-1.,0.,0.));
#514=DIRECTION('center_axis',(0.,0.,-1.));
#515=DIRECTION('ref_axis',(-1.,0.,0.));
#516=DIRECTION('center_axis',(0.,0.,1.));
#517=DIRECTION('ref_axis',(-1.,0.,0.));
#518=DIRECTION('center_axis',(0.,0.,-1.));
#519=DIRECTION('ref_axis',(1.,0.,0.));
#520=DIRECTION('center_axis',(0.,0.,1.));
#521=DIRECTION('ref_axis',(-1.,0.,0.));
#522=DIRECTION('center_axis',(0.,0.,1.));
#523=DIRECTION('ref_axis',(-1.,0.,0.));
#524=DIRECTION('center_axis',(0.,0.,1.));
#525=DIRECTION('ref_axis',(-1.,0.,0.));
#526=DIRECTION('center_axis',(0.,0.,-1.));
#527=DIRECTION('ref_axis',(-1.,0.,0.));
#528=DIRECTION('center_axis',(0.,0.,-1.));
#529=DIRECTION('ref_axis',(-1.,0.,0.));
#530=DIRECTION('center_axis',(0.,0.,1.));
#531=DIRECTION('ref_axis',(-1.,0.,0.));
#532=DIRECTION('center_axis',(0.,0.,-1.));
#533=DIRECTION('ref_axis',(1.,0.,0.));
#534=DIRECTION('center_axis',(0.,0.,-1.));
#535=DIRECTION('ref_axis',(1.,0.,0.));
#536=DIRECTION('center_axis',(0.,0.,-1.));
#537=DIRECTION('ref_axis',(1.,0.,0.));
#538=DIRECTION('center_axis',(0.,0.,1.));
#539=DIRECTION('ref_axis',(1.,0.,0.));
#540=DIRECTION('center_axis',(0.,0.,-1.));
#541=DIRECTION('ref_axis',(1.,0.,0.));
#542=DIRECTION('center_axis',(0.,0.,-1.));
#543=DIRECTION('ref_axis',(0.,1.,0.));
#544=DIRECTION('center_axis',(0.,0.,1.));
#545=DIRECTION('ref_axis',(0.,1.,0.));
#546=DIRECTION('center_axis',(0.,0.,-1.));
#547=DIRECTION('ref_axis',(0.,1.,0.));
#548=DIRECTION('center_axis',(0.,0.,-1.));
#549=DIRECTION('ref_axis',(0.,1.,0.));
#550=DIRECTION('center_axis',(0.,0.,-1.));
#551=DIRECTION('ref_axis',(0.,1.,0.));
#552=DIRECTION('center_axis',(0.,0.,-1.));
#553=DIRECTION('ref_axis',(0.,1.,0.));
#554=DIRECTION('center_axis',(0.,0.,1.));
#555=DIRECTION('ref_axis',(0.,1.,0.));
#556=DIRECTION('center_axis',(0.,0.,-1.));
#557=DIRECTION('ref_axis',(0.,1.,0.));
#558=CARTESIAN_POINT('',(0.,0.,0.));
#559=CARTESIAN_POINT('Origin',(0.,0.,-0.48025));
#560=CARTESIAN_POINT('',(-0.647,-7.92320310923078E-17,-0.5));
#561=CARTESIAN_POINT('Origin',(0.,0.,-0.5));
#562=CARTESIAN_POINT('',(-0.6865,8.40692261899062E-17,-0.4605));
#563=CARTESIAN_POINT('Origin',(0.,0.,-0.4605));
#564=CARTESIAN_POINT('Origin',(0.,0.,-0.125));
#565=CARTESIAN_POINT('',(-0.6865,-8.40692261899062E-17,-0.1645));
#566=CARTESIAN_POINT('Origin',(0.,0.,-0.1645));
#567=CARTESIAN_POINT('Origin',(0.,0.,-0.5));
#568=CARTESIAN_POINT('',(0.5625,6.88841074025087E-17,-0.5));
#569=CARTESIAN_POINT('Origin',(0.,0.,-0.5));
#570=CARTESIAN_POINT('Origin',(0.,0.,-0.14475));
#571=CARTESIAN_POINT('',(0.647,7.92320310923078E-17,-0.125));
#572=CARTESIAN_POINT('',(-0.647,-7.92320310923078E-17,-0.125));
#573=CARTESIAN_POINT('Origin',(0.,0.,-0.125));
#574=CARTESIAN_POINT('Origin',(0.,0.,-0.125));
#575=CARTESIAN_POINT('Origin',(0.,0.,-2.53197215624501));
#576=CARTESIAN_POINT('',(-0.5075,-6.21487724564856E-17,-1.625));
#577=CARTESIAN_POINT('Origin',(0.,0.,-1.625));
#578=CARTESIAN_POINT('',(0.5075,0.,0.));
#579=CARTESIAN_POINT('Origin',(0.,0.,0.));
#580=CARTESIAN_POINT('Origin',(0.,0.,0.));
#581=CARTESIAN_POINT('',(0.5625,6.88841074025087E-17,-1.625));
#582=CARTESIAN_POINT('Origin',(0.,0.,-1.625));
#583=CARTESIAN_POINT('Origin',(0.,0.,-1.625));
#584=CARTESIAN_POINT('Origin',(0.,0.,0.));
#585=CARTESIAN_POINT('',(0.647,7.92320310923078E-17,0.));
#586=CARTESIAN_POINT('Origin',(0.,0.,0.));
#587=CARTESIAN_POINT('Origin',(0.,0.,0.));
#588=CARTESIAN_POINT('Origin',(0.,0.,0.065));
#589=CARTESIAN_POINT('',(0.5935,0.,0.065));
#590=CARTESIAN_POINT('Origin',(0.,0.,0.065));
#591=CARTESIAN_POINT('',(-0.5075,6.21487724564856E-17,0.0649999999999999));
#592=CARTESIAN_POINT('Origin',(0.,0.,0.0649999999999999));
#593=CARTESIAN_POINT('Origin',(0.,0.,0.0325));
#594=CARTESIAN_POINT('',(0.5935,0.,0.));
#595=CARTESIAN_POINT('Origin',(0.,0.,0.));
#596=CARTESIAN_POINT('Origin',(0.,0.,1.84306809423852));
#597=CARTESIAN_POINT('',(-0.5075,6.21487724564856E-17,0.13));
#598=CARTESIAN_POINT('Origin',(0.,0.,0.13));
#599=CARTESIAN_POINT('Origin',(0.,0.,0.13));
#600=CARTESIAN_POINT('',(0.65,-7.95994129984545E-17,0.));
#601=CARTESIAN_POINT('Origin',(0.,0.,0.));
#602=CARTESIAN_POINT('',(0.65,-7.95994129984545E-17,0.13));
#603=CARTESIAN_POINT('Origin',(0.,0.,0.13));
#604=CARTESIAN_POINT('Origin',(0.,0.,0.));
#605=CARTESIAN_POINT('Origin',(0.,0.,0.13));
#606=CARTESIAN_POINT('Origin',(0.,0.,0.24));
#607=CARTESIAN_POINT('',(0.8125,9.94992662480682E-17,0.225));
#608=CARTESIAN_POINT('Origin',(0.,0.,0.225));
#609=CARTESIAN_POINT('',(0.7825,-9.5825447186601E-17,0.255));
#610=CARTESIAN_POINT('Origin',(0.,0.,0.255));
#611=CARTESIAN_POINT('Origin',(0.,0.,0.255));
#612=CARTESIAN_POINT('',(0.8125,-9.94992662480682E-17,-0.465));
#613=CARTESIAN_POINT('Origin',(0.,0.,-0.465));
#614=CARTESIAN_POINT('Origin',(0.,0.,0.255));
#615=CARTESIAN_POINT('',(-0.5075,6.21487724564856E-17,0.255));
#616=CARTESIAN_POINT('Origin',(0.,0.,0.255));
#617=CARTESIAN_POINT('Origin',(0.,0.,-0.48));
#618=CARTESIAN_POINT('',(0.7825,9.5825447186601E-17,-0.495));
#619=CARTESIAN_POINT('Origin',(0.,0.,-0.495));
#620=CARTESIAN_POINT('Origin',(0.,0.,-0.495));
#621=CARTESIAN_POINT('',(0.6905,-8.45590687314351E-17,-0.495));
#622=CARTESIAN_POINT('Origin',(0.,0.,-0.495));
#623=CARTESIAN_POINT('Origin',(0.,0.,-0.48));
#624=CARTESIAN_POINT('',(0.6605,8.0885249669968E-17,-0.465));
#625=CARTESIAN_POINT('Origin',(0.,0.,-0.465));
#626=CARTESIAN_POINT('Origin',(0.,0.,-0.1825));
#627=CARTESIAN_POINT('',(0.6605,0.,0.13));
#628=CARTESIAN_POINT('Origin',(0.,0.,0.13));
#629=CARTESIAN_POINT('Origin',(0.,0.,1.92238495072671));
#630=CARTESIAN_POINT('',(-0.5075,-6.21487724564856E-17,0.13));
#631=CARTESIAN_POINT('Origin',(0.,0.,0.13));
#632=CARTESIAN_POINT('Origin',(0.,0.,0.13));
#633=CARTESIAN_POINT('Origin',(0.,0.,0.));
#634=CARTESIAN_POINT('',(6.87004164494354E-17,-0.561,0.));
#635=CARTESIAN_POINT('Origin',(0.,0.,0.));
#636=CARTESIAN_POINT('',(-6.52102883410416E-17,-0.5325,0.));
#637=CARTESIAN_POINT('Origin',(0.,0.,0.));
#638=CARTESIAN_POINT('Origin',(0.,0.,0.0325));
#639=CARTESIAN_POINT('',(-6.87004164494354E-17,-0.561,0.065));
#640=CARTESIAN_POINT('Origin',(0.,0.,0.065));
#641=CARTESIAN_POINT('Origin',(0.,0.,0.065));
#642=CARTESIAN_POINT('',(6.52102883410416E-17,-0.5325,0.065));
#643=CARTESIAN_POINT('Origin',(0.,0.,0.065));
#644=CARTESIAN_POINT('Origin',(0.,0.,0.0325));
#645=UNCERTAINTY_MEASURE_WITH_UNIT(LENGTH_MEASURE(0.000393700787401575),
#650,'DISTANCE_ACCURACY_VALUE',
'Maximum model space distance between geometric entities at asserted c
onnectivities');
#646=UNCERTAINTY_MEASURE_WITH_UNIT(LENGTH_MEASURE(0.000393700787401575),
#650,'DISTANCE_ACCURACY_VALUE',
'Maximum model space distance between geometric entities at asserted c
onnectivities');
#647=(
GEOMETRIC_REPRESENTATION_CONTEXT(3)
GLOBAL_UNCERTAINTY_ASSIGNED_CONTEXT((#645))
GLOBAL_UNIT_ASSIGNED_CONTEXT((#650,#655,#654))
REPRESENTATION_CONTEXT('','3D')
);
#648=(
GEOMETRIC_REPRESENTATION_CONTEXT(3)
GLOBAL_UNCERTAINTY_ASSIGNED_CONTEXT((#646))
GLOBAL_UNIT_ASSIGNED_CONTEXT((#650,#655,#654))
REPRESENTATION_CONTEXT('','3D')
);
#649=DIMENSIONAL_EXPONENTS(1.,0.,0.,0.,0.,0.,0.);
#650=(
CONVERSION_BASED_UNIT('inch',#653)
LENGTH_UNIT()
NAMED_UNIT(#649)
);
#651=(
LENGTH_UNIT()
NAMED_UNIT(*)
SI_UNIT(.MILLI.,.METRE.)
);
#652=(
LENGTH_UNIT()
NAMED_UNIT(*)
SI_UNIT(.CENTI.,.METRE.)
);
#653=LENGTH_MEASURE_WITH_UNIT(LENGTH_MEASURE(25.4),#651);
#654=(
NAMED_UNIT(*)
SI_UNIT($,.STERADIAN.)
SOLID_ANGLE_UNIT()
);
#655=(
NAMED_UNIT(*)
PLANE_ANGLE_UNIT()
SI_UNIT($,.RADIAN.)
);
#656=SHAPE_DEFINITION_REPRESENTATION(#657,#658);
#657=PRODUCT_DEFINITION_SHAPE('',$,#660);
#658=SHAPE_REPRESENTATION('',(#384),#647);
#659=PRODUCT_DEFINITION_CONTEXT('part definition',#664,'design');
#660=PRODUCT_DEFINITION('1000118a','1000118a',#661,#659);
#661=PRODUCT_DEFINITION_FORMATION('',$,#666);
#662=PRODUCT_RELATED_PRODUCT_CATEGORY('1000118a','1000118a',(#666));
#663=APPLICATION_PROTOCOL_DEFINITION('international standard',
'automotive_design',2009,#664);
#664=APPLICATION_CONTEXT(
'Core Data for Automotive Mechanical Design Process');
#665=PRODUCT_CONTEXT('part definition',#664,'mechanical');
#666=PRODUCT('1000118a','1000118a',$,(#665));
#667=PRESENTATION_STYLE_ASSIGNMENT((#672));
#668=PRESENTATION_STYLE_ASSIGNMENT((#673));
#669=PRESENTATION_STYLE_ASSIGNMENT((#674));
#670=PRESENTATION_STYLE_ASSIGNMENT((#675));
#671=PRESENTATION_STYLE_ASSIGNMENT((#676));
#672=SURFACE_STYLE_USAGE(.BOTH.,#677);
#673=SURFACE_STYLE_USAGE(.BOTH.,#678);
#674=SURFACE_STYLE_USAGE(.BOTH.,#679);
#675=SURFACE_STYLE_USAGE(.BOTH.,#680);
#676=SURFACE_STYLE_USAGE(.BOTH.,#681);
#677=SURFACE_SIDE_STYLE('',(#682));
#678=SURFACE_SIDE_STYLE('',(#683));
#679=SURFACE_SIDE_STYLE('',(#684));
#680=SURFACE_SIDE_STYLE('',(#685));
#681=SURFACE_SIDE_STYLE('',(#686));
#682=SURFACE_STYLE_FILL_AREA(#687);
#683=SURFACE_STYLE_FILL_AREA(#688);
#684=SURFACE_STYLE_FILL_AREA(#689);
#685=SURFACE_STYLE_FILL_AREA(#690);
#686=SURFACE_STYLE_FILL_AREA(#691);
#687=FILL_AREA_STYLE('',(#692));
#688=FILL_AREA_STYLE('',(#693));
#689=FILL_AREA_STYLE('',(#694));
#690=FILL_AREA_STYLE('',(#695));
#691=FILL_AREA_STYLE('',(#696));
#692=FILL_AREA_STYLE_COLOUR('',#697);
#693=FILL_AREA_STYLE_COLOUR('',#698);
#694=FILL_AREA_STYLE_COLOUR('',#699);
#695=FILL_AREA_STYLE_COLOUR('',#700);
#696=FILL_AREA_STYLE_COLOUR('',#701);
#697=COLOUR_RGB('',0.752941176470588,0.752941176470588,0.752941176470588);
#698=COLOUR_RGB('',0.87843137254902,0.874509803921569,0.858823529411765);
#699=COLOUR_RGB('',0.87843137254902,0.874509803921569,0.858823529411765);
#700=COLOUR_RGB('',0.482352941176471,0.482352941176471,0.482352941176471);
#701=COLOUR_RGB('',0.250980392156863,0.250980392156863,0.250980392156863);
ENDSEC;
END-ISO-10303-21;
