ISO-10303-21;
HEADER;
/* Generated by software containing ST-Developer
 * from STEP Tools, Inc. (www.steptools.com) 
 */

FILE_DESCRIPTION(
/* description */ (''),
/* implementation_level */ '2;1');

FILE_NAME(
/* name */ 'G:\\drawings\\part models\\1000101a.stp',
/* time_stamp */ '2019-09-19T09:48:18-04:00',
/* author */ ('Sana_M'),
/* organization */ (''),
/* preprocessor_version */ 'ST-DEVELOPER v16.13',
/* originating_system */ 'Autodesk Inventor 2018',
/* authorisation */ '');

FILE_SCHEMA (('AUTOMOTIVE_DESIGN { 1 0 10303 214 3 1 1 }'));
ENDSEC;

DATA;
#10=MECHANICAL_DESIGN_GEOMETRIC_PRESENTATION_REPRESENTATION('',(#296,#306,
#307,#303,#301,#308,#302,#305,#298,#299,#300,#297,#304,#318,#320,#317,#321,
#312,#316,#313,#310,#319,#309,#315,#314,#311,#322,#323,#326,#324,#325),
#635);
#11=SHAPE_REPRESENTATION_RELATIONSHIP('SRR','None',#645,#12);
#12=ADVANCED_BREP_SHAPE_REPRESENTATION('',(#17,#18,#19),#634);
#13=TOROIDAL_SURFACE('',#417,0.0605,0.0275);
#14=TOROIDAL_SURFACE('',#424,0.0555,0.0275);
#15=TOROIDAL_SURFACE('',#428,0.0555,0.0275);
#16=TOROIDAL_SURFACE('',#432,0.0605,0.0275);
#17=MANIFOLD_SOLID_BREP('Solid1',#355);
#18=MANIFOLD_SOLID_BREP('Solid2',#356);
#19=MANIFOLD_SOLID_BREP('Solid3',#357);
#20=CONICAL_SURFACE('',#382,0.182,0.785398163397448);
#21=CONICAL_SURFACE('',#388,0.1425,0.785398163397451);
#22=CONICAL_SURFACE('',#395,0.1675,0.785398163397447);
#23=CONICAL_SURFACE('',#399,0.174,0.785398163397448);
#24=CONICAL_SURFACE('',#408,0.235,0.785398163397449);
#25=CONICAL_SURFACE('',#415,0.235,0.785398163397448);
#26=PLANE('',#380);
#27=PLANE('',#387);
#28=PLANE('',#393);
#29=PLANE('',#397);
#30=PLANE('',#404);
#31=PLANE('',#406);
#32=PLANE('',#413);
#33=PLANE('',#420);
#34=PLANE('',#430);
#35=FACE_BOUND('',#92,.T.);
#36=FACE_BOUND('',#94,.T.);
#37=FACE_BOUND('',#96,.T.);
#38=FACE_BOUND('',#98,.T.);
#39=FACE_BOUND('',#100,.T.);
#40=FACE_BOUND('',#102,.T.);
#41=FACE_BOUND('',#104,.T.);
#42=FACE_BOUND('',#106,.T.);
#43=FACE_BOUND('',#108,.T.);
#44=FACE_BOUND('',#110,.T.);
#45=FACE_BOUND('',#112,.T.);
#46=FACE_BOUND('',#114,.T.);
#47=FACE_BOUND('',#116,.T.);
#48=FACE_BOUND('',#118,.T.);
#49=FACE_BOUND('',#120,.T.);
#50=FACE_BOUND('',#122,.T.);
#51=FACE_BOUND('',#124,.T.);
#52=FACE_BOUND('',#126,.T.);
#53=FACE_BOUND('',#128,.T.);
#54=FACE_BOUND('',#130,.T.);
#55=FACE_BOUND('',#132,.T.);
#56=FACE_BOUND('',#134,.T.);
#57=FACE_BOUND('',#136,.T.);
#58=FACE_BOUND('',#138,.T.);
#59=FACE_BOUND('',#140,.T.);
#60=FACE_BOUND('',#142,.T.);
#61=FACE_BOUND('',#144,.T.);
#62=FACE_BOUND('',#146,.T.);
#63=FACE_OUTER_BOUND('',#91,.T.);
#64=FACE_OUTER_BOUND('',#93,.T.);
#65=FACE_OUTER_BOUND('',#95,.T.);
#66=FACE_OUTER_BOUND('',#97,.T.);
#67=FACE_OUTER_BOUND('',#99,.T.);
#68=FACE_OUTER_BOUND('',#101,.T.);
#69=FACE_OUTER_BOUND('',#103,.T.);
#70=FACE_OUTER_BOUND('',#105,.T.);
#71=FACE_OUTER_BOUND('',#107,.T.);
#72=FACE_OUTER_BOUND('',#109,.T.);
#73=FACE_OUTER_BOUND('',#111,.T.);
#74=FACE_OUTER_BOUND('',#113,.T.);
#75=FACE_OUTER_BOUND('',#115,.T.);
#76=FACE_OUTER_BOUND('',#117,.T.);
#77=FACE_OUTER_BOUND('',#119,.T.);
#78=FACE_OUTER_BOUND('',#121,.T.);
#79=FACE_OUTER_BOUND('',#123,.T.);
#80=FACE_OUTER_BOUND('',#125,.T.);
#81=FACE_OUTER_BOUND('',#127,.T.);
#82=FACE_OUTER_BOUND('',#129,.T.);
#83=FACE_OUTER_BOUND('',#131,.T.);
#84=FACE_OUTER_BOUND('',#133,.T.);
#85=FACE_OUTER_BOUND('',#135,.T.);
#86=FACE_OUTER_BOUND('',#137,.T.);
#87=FACE_OUTER_BOUND('',#139,.T.);
#88=FACE_OUTER_BOUND('',#141,.T.);
#89=FACE_OUTER_BOUND('',#143,.T.);
#90=FACE_OUTER_BOUND('',#145,.T.);
#91=EDGE_LOOP('',(#231));
#92=EDGE_LOOP('',(#232));
#93=EDGE_LOOP('',(#233));
#94=EDGE_LOOP('',(#234));
#95=EDGE_LOOP('',(#235));
#96=EDGE_LOOP('',(#236));
#97=EDGE_LOOP('',(#237));
#98=EDGE_LOOP('',(#238));
#99=EDGE_LOOP('',(#239));
#100=EDGE_LOOP('',(#240));
#101=EDGE_LOOP('',(#241));
#102=EDGE_LOOP('',(#242));
#103=EDGE_LOOP('',(#243));
#104=EDGE_LOOP('',(#244));
#105=EDGE_LOOP('',(#245));
#106=EDGE_LOOP('',(#246));
#107=EDGE_LOOP('',(#247));
#108=EDGE_LOOP('',(#248));
#109=EDGE_LOOP('',(#249));
#110=EDGE_LOOP('',(#250));
#111=EDGE_LOOP('',(#251));
#112=EDGE_LOOP('',(#252));
#113=EDGE_LOOP('',(#253));
#114=EDGE_LOOP('',(#254));
#115=EDGE_LOOP('',(#255));
#116=EDGE_LOOP('',(#256));
#117=EDGE_LOOP('',(#257));
#118=EDGE_LOOP('',(#258));
#119=EDGE_LOOP('',(#259));
#120=EDGE_LOOP('',(#260));
#121=EDGE_LOOP('',(#261));
#122=EDGE_LOOP('',(#262));
#123=EDGE_LOOP('',(#263));
#124=EDGE_LOOP('',(#264));
#125=EDGE_LOOP('',(#265));
#126=EDGE_LOOP('',(#266));
#127=EDGE_LOOP('',(#267));
#128=EDGE_LOOP('',(#268));
#129=EDGE_LOOP('',(#269));
#130=EDGE_LOOP('',(#270));
#131=EDGE_LOOP('',(#271));
#132=EDGE_LOOP('',(#272));
#133=EDGE_LOOP('',(#273));
#134=EDGE_LOOP('',(#274));
#135=EDGE_LOOP('',(#275));
#136=EDGE_LOOP('',(#276));
#137=EDGE_LOOP('',(#277));
#138=EDGE_LOOP('',(#278));
#139=EDGE_LOOP('',(#279));
#140=EDGE_LOOP('',(#280));
#141=EDGE_LOOP('',(#281));
#142=EDGE_LOOP('',(#282));
#143=EDGE_LOOP('',(#283));
#144=EDGE_LOOP('',(#284));
#145=EDGE_LOOP('',(#285));
#146=EDGE_LOOP('',(#286));
#147=CIRCLE('',#378,0.0625);
#148=CIRCLE('',#379,0.0625);
#149=CIRCLE('',#381,0.0375);
#150=CIRCLE('',#383,0.187);
#151=CIRCLE('',#384,0.177);
#152=CIRCLE('',#386,0.187);
#153=CIRCLE('',#389,0.1375);
#154=CIRCLE('',#390,0.1475);
#155=CIRCLE('',#392,0.1475);
#156=CIRCLE('',#394,0.0375);
#157=CIRCLE('',#396,0.148);
#158=CIRCLE('',#400,0.1605);
#159=CIRCLE('',#401,0.1875);
#160=CIRCLE('',#403,0.1605);
#161=CIRCLE('',#405,0.22);
#162=CIRCLE('',#407,0.0385);
#163=CIRCLE('',#409,0.25);
#164=CIRCLE('',#410,0.22);
#165=CIRCLE('',#412,0.25);
#166=CIRCLE('',#414,0.0385);
#167=CIRCLE('',#418,0.088);
#168=CIRCLE('',#419,0.0605);
#169=CIRCLE('',#421,0.0555);
#170=CIRCLE('',#423,0.088);
#171=CIRCLE('',#425,0.028);
#172=CIRCLE('',#427,0.028);
#173=CIRCLE('',#429,0.0555);
#174=CIRCLE('',#431,0.0605);
#175=VERTEX_POINT('',#549);
#176=VERTEX_POINT('',#551);
#177=VERTEX_POINT('',#554);
#178=VERTEX_POINT('',#557);
#179=VERTEX_POINT('',#559);
#180=VERTEX_POINT('',#562);
#181=VERTEX_POINT('',#566);
#182=VERTEX_POINT('',#568);
#183=VERTEX_POINT('',#571);
#184=VERTEX_POINT('',#574);
#185=VERTEX_POINT('',#577);
#186=VERTEX_POINT('',#582);
#187=VERTEX_POINT('',#584);
#188=VERTEX_POINT('',#587);
#189=VERTEX_POINT('',#590);
#190=VERTEX_POINT('',#593);
#191=VERTEX_POINT('',#596);
#192=VERTEX_POINT('',#598);
#193=VERTEX_POINT('',#601);
#194=VERTEX_POINT('',#604);
#195=VERTEX_POINT('',#609);
#196=VERTEX_POINT('',#611);
#197=VERTEX_POINT('',#614);
#198=VERTEX_POINT('',#617);
#199=VERTEX_POINT('',#620);
#200=VERTEX_POINT('',#623);
#201=VERTEX_POINT('',#626);
#202=VERTEX_POINT('',#629);
#203=EDGE_CURVE('',#175,#175,#147,.T.);
#204=EDGE_CURVE('',#176,#176,#148,.T.);
#205=EDGE_CURVE('',#177,#177,#149,.T.);
#206=EDGE_CURVE('',#178,#178,#150,.T.);
#207=EDGE_CURVE('',#179,#179,#151,.T.);
#208=EDGE_CURVE('',#180,#180,#152,.T.);
#209=EDGE_CURVE('',#181,#181,#153,.T.);
#210=EDGE_CURVE('',#182,#182,#154,.T.);
#211=EDGE_CURVE('',#183,#183,#155,.T.);
#212=EDGE_CURVE('',#184,#184,#156,.T.);
#213=EDGE_CURVE('',#185,#185,#157,.T.);
#214=EDGE_CURVE('',#186,#186,#158,.T.);
#215=EDGE_CURVE('',#187,#187,#159,.T.);
#216=EDGE_CURVE('',#188,#188,#160,.T.);
#217=EDGE_CURVE('',#189,#189,#161,.T.);
#218=EDGE_CURVE('',#190,#190,#162,.T.);
#219=EDGE_CURVE('',#191,#191,#163,.T.);
#220=EDGE_CURVE('',#192,#192,#164,.T.);
#221=EDGE_CURVE('',#193,#193,#165,.T.);
#222=EDGE_CURVE('',#194,#194,#166,.T.);
#223=EDGE_CURVE('',#195,#195,#167,.T.);
#224=EDGE_CURVE('',#196,#196,#168,.T.);
#225=EDGE_CURVE('',#197,#197,#169,.T.);
#226=EDGE_CURVE('',#198,#198,#170,.T.);
#227=EDGE_CURVE('',#199,#199,#171,.T.);
#228=EDGE_CURVE('',#200,#200,#172,.T.);
#229=EDGE_CURVE('',#201,#201,#173,.T.);
#230=EDGE_CURVE('',#202,#202,#174,.T.);
#231=ORIENTED_EDGE('',*,*,#203,.F.);
#232=ORIENTED_EDGE('',*,*,#204,.F.);
#233=ORIENTED_EDGE('',*,*,#204,.T.);
#234=ORIENTED_EDGE('',*,*,#205,.F.);
#235=ORIENTED_EDGE('',*,*,#206,.T.);
#236=ORIENTED_EDGE('',*,*,#207,.T.);
#237=ORIENTED_EDGE('',*,*,#208,.F.);
#238=ORIENTED_EDGE('',*,*,#206,.F.);
#239=ORIENTED_EDGE('',*,*,#207,.F.);
#240=ORIENTED_EDGE('',*,*,#203,.T.);
#241=ORIENTED_EDGE('',*,*,#209,.T.);
#242=ORIENTED_EDGE('',*,*,#210,.T.);
#243=ORIENTED_EDGE('',*,*,#211,.F.);
#244=ORIENTED_EDGE('',*,*,#210,.F.);
#245=ORIENTED_EDGE('',*,*,#209,.F.);
#246=ORIENTED_EDGE('',*,*,#212,.T.);
#247=ORIENTED_EDGE('',*,*,#213,.T.);
#248=ORIENTED_EDGE('',*,*,#208,.T.);
#249=ORIENTED_EDGE('',*,*,#213,.F.);
#250=ORIENTED_EDGE('',*,*,#211,.T.);
#251=ORIENTED_EDGE('',*,*,#205,.T.);
#252=ORIENTED_EDGE('',*,*,#212,.F.);
#253=ORIENTED_EDGE('',*,*,#214,.T.);
#254=ORIENTED_EDGE('',*,*,#215,.T.);
#255=ORIENTED_EDGE('',*,*,#216,.F.);
#256=ORIENTED_EDGE('',*,*,#214,.F.);
#257=ORIENTED_EDGE('',*,*,#217,.F.);
#258=ORIENTED_EDGE('',*,*,#215,.F.);
#259=ORIENTED_EDGE('',*,*,#216,.T.);
#260=ORIENTED_EDGE('',*,*,#218,.F.);
#261=ORIENTED_EDGE('',*,*,#219,.T.);
#262=ORIENTED_EDGE('',*,*,#220,.T.);
#263=ORIENTED_EDGE('',*,*,#221,.F.);
#264=ORIENTED_EDGE('',*,*,#219,.F.);
#265=ORIENTED_EDGE('',*,*,#220,.F.);
#266=ORIENTED_EDGE('',*,*,#222,.T.);
#267=ORIENTED_EDGE('',*,*,#217,.T.);
#268=ORIENTED_EDGE('',*,*,#221,.T.);
#269=ORIENTED_EDGE('',*,*,#218,.T.);
#270=ORIENTED_EDGE('',*,*,#222,.F.);
#271=ORIENTED_EDGE('',*,*,#223,.T.);
#272=ORIENTED_EDGE('',*,*,#224,.T.);
#273=ORIENTED_EDGE('',*,*,#224,.F.);
#274=ORIENTED_EDGE('',*,*,#225,.F.);
#275=ORIENTED_EDGE('',*,*,#226,.F.);
#276=ORIENTED_EDGE('',*,*,#223,.F.);
#277=ORIENTED_EDGE('',*,*,#227,.T.);
#278=ORIENTED_EDGE('',*,*,#225,.T.);
#279=ORIENTED_EDGE('',*,*,#228,.F.);
#280=ORIENTED_EDGE('',*,*,#227,.F.);
#281=ORIENTED_EDGE('',*,*,#228,.T.);
#282=ORIENTED_EDGE('',*,*,#229,.T.);
#283=ORIENTED_EDGE('',*,*,#230,.F.);
#284=ORIENTED_EDGE('',*,*,#229,.F.);
#285=ORIENTED_EDGE('',*,*,#230,.T.);
#286=ORIENTED_EDGE('',*,*,#226,.T.);
#287=CYLINDRICAL_SURFACE('',#377,0.0625);
#288=CYLINDRICAL_SURFACE('',#385,0.187);
#289=CYLINDRICAL_SURFACE('',#391,0.1475);
#290=CYLINDRICAL_SURFACE('',#398,0.0375);
#291=CYLINDRICAL_SURFACE('',#402,0.1605);
#292=CYLINDRICAL_SURFACE('',#411,0.25);
#293=CYLINDRICAL_SURFACE('',#416,0.0385);
#294=CYLINDRICAL_SURFACE('',#422,0.088);
#295=CYLINDRICAL_SURFACE('',#426,0.028);
#296=STYLED_ITEM('',(#655),#327);
#297=STYLED_ITEM('',(#655),#328);
#298=STYLED_ITEM('',(#655),#329);
#299=STYLED_ITEM('',(#655),#330);
#300=STYLED_ITEM('',(#655),#331);
#301=STYLED_ITEM('',(#655),#332);
#302=STYLED_ITEM('',(#655),#333);
#303=STYLED_ITEM('',(#655),#334);
#304=STYLED_ITEM('',(#655),#335);
#305=STYLED_ITEM('',(#655),#336);
#306=STYLED_ITEM('',(#655),#337);
#307=STYLED_ITEM('',(#654),#17);
#308=STYLED_ITEM('',(#655),#338);
#309=STYLED_ITEM('',(#655),#339);
#310=STYLED_ITEM('',(#655),#340);
#311=STYLED_ITEM('',(#655),#341);
#312=STYLED_ITEM('',(#655),#342);
#313=STYLED_ITEM('',(#656),#343);
#314=STYLED_ITEM('',(#655),#344);
#315=STYLED_ITEM('',(#655),#345);
#316=STYLED_ITEM('',(#655),#346);
#317=STYLED_ITEM('',(#654),#18);
#318=STYLED_ITEM('',(#657),#347);
#319=STYLED_ITEM('',(#657),#348);
#320=STYLED_ITEM('',(#657),#349);
#321=STYLED_ITEM('',(#657),#350);
#322=STYLED_ITEM('',(#657),#351);
#323=STYLED_ITEM('',(#657),#352);
#324=STYLED_ITEM('',(#657),#353);
#325=STYLED_ITEM('',(#657),#354);
#326=STYLED_ITEM('',(#654),#19);
#327=ADVANCED_FACE('',(#63,#35),#287,.F.);
#328=ADVANCED_FACE('',(#64,#36),#26,.T.);
#329=ADVANCED_FACE('',(#65,#37),#20,.T.);
#330=ADVANCED_FACE('',(#66,#38),#288,.T.);
#331=ADVANCED_FACE('',(#67,#39),#27,.T.);
#332=ADVANCED_FACE('',(#68,#40),#21,.T.);
#333=ADVANCED_FACE('',(#69,#41),#289,.T.);
#334=ADVANCED_FACE('',(#70,#42),#28,.F.);
#335=ADVANCED_FACE('',(#71,#43),#22,.T.);
#336=ADVANCED_FACE('',(#72,#44),#29,.F.);
#337=ADVANCED_FACE('',(#73,#45),#290,.F.);
#338=ADVANCED_FACE('',(#74,#46),#23,.F.);
#339=ADVANCED_FACE('',(#75,#47),#291,.F.);
#340=ADVANCED_FACE('',(#76,#48),#30,.F.);
#341=ADVANCED_FACE('',(#77,#49),#31,.T.);
#342=ADVANCED_FACE('',(#78,#50),#24,.T.);
#343=ADVANCED_FACE('',(#79,#51),#292,.T.);
#344=ADVANCED_FACE('',(#80,#52),#32,.T.);
#345=ADVANCED_FACE('',(#81,#53),#25,.T.);
#346=ADVANCED_FACE('',(#82,#54),#293,.F.);
#347=ADVANCED_FACE('',(#83,#55),#13,.T.);
#348=ADVANCED_FACE('',(#84,#56),#33,.T.);
#349=ADVANCED_FACE('',(#85,#57),#294,.T.);
#350=ADVANCED_FACE('',(#86,#58),#14,.T.);
#351=ADVANCED_FACE('',(#87,#59),#295,.F.);
#352=ADVANCED_FACE('',(#88,#60),#15,.T.);
#353=ADVANCED_FACE('',(#89,#61),#34,.F.);
#354=ADVANCED_FACE('',(#90,#62),#16,.T.);
#355=CLOSED_SHELL('',(#327,#328,#329,#330,#331,#332,#333,#334,#335,#336,
#337));
#356=CLOSED_SHELL('',(#338,#339,#340,#341,#342,#343,#344,#345,#346));
#357=CLOSED_SHELL('',(#347,#348,#349,#350,#351,#352,#353,#354));
#358=DERIVED_UNIT_ELEMENT(#360,0.);
#359=DERIVED_UNIT_ELEMENT(#639,0.);
#360=(
MASS_UNIT()
NAMED_UNIT(*)
SI_UNIT($,.GRAM.)
);
#361=DERIVED_UNIT((#358,#359));
#362=MEASURE_REPRESENTATION_ITEM('density measure',
POSITIVE_RATIO_MEASURE(1.),#361);
#363=PROPERTY_DEFINITION_REPRESENTATION(#368,#365);
#364=PROPERTY_DEFINITION_REPRESENTATION(#369,#366);
#365=REPRESENTATION('material name',(#367),#634);
#366=REPRESENTATION('density',(#362),#634);
#367=DESCRIPTIVE_REPRESENTATION_ITEM('Generic','Generic');
#368=PROPERTY_DEFINITION('material property','material name',#647);
#369=PROPERTY_DEFINITION('material property','density of part',#647);
#370=DATE_TIME_ROLE('creation_date');
#371=APPLIED_DATE_AND_TIME_ASSIGNMENT(#372,#370,(#647));
#372=DATE_AND_TIME(#373,#374);
#373=CALENDAR_DATE(2019,19,9);
#374=LOCAL_TIME(13,48,10.,#375);
#375=COORDINATED_UNIVERSAL_TIME_OFFSET(0,0,.BEHIND.);
#376=AXIS2_PLACEMENT_3D('placement',#547,#433,#434);
#377=AXIS2_PLACEMENT_3D('',#548,#435,#436);
#378=AXIS2_PLACEMENT_3D('',#550,#437,#438);
#379=AXIS2_PLACEMENT_3D('',#552,#439,#440);
#380=AXIS2_PLACEMENT_3D('',#553,#441,#442);
#381=AXIS2_PLACEMENT_3D('',#555,#443,#444);
#382=AXIS2_PLACEMENT_3D('',#556,#445,#446);
#383=AXIS2_PLACEMENT_3D('',#558,#447,#448);
#384=AXIS2_PLACEMENT_3D('',#560,#449,#450);
#385=AXIS2_PLACEMENT_3D('',#561,#451,#452);
#386=AXIS2_PLACEMENT_3D('',#563,#453,#454);
#387=AXIS2_PLACEMENT_3D('',#564,#455,#456);
#388=AXIS2_PLACEMENT_3D('',#565,#457,#458);
#389=AXIS2_PLACEMENT_3D('',#567,#459,#460);
#390=AXIS2_PLACEMENT_3D('',#569,#461,#462);
#391=AXIS2_PLACEMENT_3D('',#570,#463,#464);
#392=AXIS2_PLACEMENT_3D('',#572,#465,#466);
#393=AXIS2_PLACEMENT_3D('',#573,#467,#468);
#394=AXIS2_PLACEMENT_3D('',#575,#469,#470);
#395=AXIS2_PLACEMENT_3D('',#576,#471,#472);
#396=AXIS2_PLACEMENT_3D('',#578,#473,#474);
#397=AXIS2_PLACEMENT_3D('',#579,#475,#476);
#398=AXIS2_PLACEMENT_3D('',#580,#477,#478);
#399=AXIS2_PLACEMENT_3D('',#581,#479,#480);
#400=AXIS2_PLACEMENT_3D('',#583,#481,#482);
#401=AXIS2_PLACEMENT_3D('',#585,#483,#484);
#402=AXIS2_PLACEMENT_3D('',#586,#485,#486);
#403=AXIS2_PLACEMENT_3D('',#588,#487,#488);
#404=AXIS2_PLACEMENT_3D('',#589,#489,#490);
#405=AXIS2_PLACEMENT_3D('',#591,#491,#492);
#406=AXIS2_PLACEMENT_3D('',#592,#493,#494);
#407=AXIS2_PLACEMENT_3D('',#594,#495,#496);
#408=AXIS2_PLACEMENT_3D('',#595,#497,#498);
#409=AXIS2_PLACEMENT_3D('',#597,#499,#500);
#410=AXIS2_PLACEMENT_3D('',#599,#501,#502);
#411=AXIS2_PLACEMENT_3D('',#600,#503,#504);
#412=AXIS2_PLACEMENT_3D('',#602,#505,#506);
#413=AXIS2_PLACEMENT_3D('',#603,#507,#508);
#414=AXIS2_PLACEMENT_3D('',#605,#509,#510);
#415=AXIS2_PLACEMENT_3D('',#606,#511,#512);
#416=AXIS2_PLACEMENT_3D('',#607,#513,#514);
#417=AXIS2_PLACEMENT_3D('',#608,#515,#516);
#418=AXIS2_PLACEMENT_3D('',#610,#517,#518);
#419=AXIS2_PLACEMENT_3D('',#612,#519,#520);
#420=AXIS2_PLACEMENT_3D('',#613,#521,#522);
#421=AXIS2_PLACEMENT_3D('',#615,#523,#524);
#422=AXIS2_PLACEMENT_3D('',#616,#525,#526);
#423=AXIS2_PLACEMENT_3D('',#618,#527,#528);
#424=AXIS2_PLACEMENT_3D('',#619,#529,#530);
#425=AXIS2_PLACEMENT_3D('',#621,#531,#532);
#426=AXIS2_PLACEMENT_3D('',#622,#533,#534);
#427=AXIS2_PLACEMENT_3D('',#624,#535,#536);
#428=AXIS2_PLACEMENT_3D('',#625,#537,#538);
#429=AXIS2_PLACEMENT_3D('',#627,#539,#540);
#430=AXIS2_PLACEMENT_3D('',#628,#541,#542);
#431=AXIS2_PLACEMENT_3D('',#630,#543,#544);
#432=AXIS2_PLACEMENT_3D('',#631,#545,#546);
#433=DIRECTION('axis',(0.,0.,1.));
#434=DIRECTION('refdir',(1.,0.,0.));
#435=DIRECTION('center_axis',(0.,0.,-1.));
#436=DIRECTION('ref_axis',(-1.,0.,0.));
#437=DIRECTION('center_axis',(0.,0.,1.));
#438=DIRECTION('ref_axis',(-1.,0.,0.));
#439=DIRECTION('center_axis',(0.,0.,-1.));
#440=DIRECTION('ref_axis',(-1.,0.,0.));
#441=DIRECTION('center_axis',(0.,0.,-1.));
#442=DIRECTION('ref_axis',(-1.,0.,0.));
#443=DIRECTION('center_axis',(0.,0.,-1.));
#444=DIRECTION('ref_axis',(1.,0.,0.));
#445=DIRECTION('center_axis',(0.,0.,1.));
#446=DIRECTION('ref_axis',(-1.,0.,0.));
#447=DIRECTION('center_axis',(0.,0.,-1.));
#448=DIRECTION('ref_axis',(-1.,0.,0.));
#449=DIRECTION('center_axis',(0.,0.,1.));
#450=DIRECTION('ref_axis',(-1.,0.,0.));
#451=DIRECTION('center_axis',(0.,0.,1.));
#452=DIRECTION('ref_axis',(-1.,0.,0.));
#453=DIRECTION('center_axis',(0.,0.,1.));
#454=DIRECTION('ref_axis',(-1.,0.,0.));
#455=DIRECTION('center_axis',(0.,0.,-1.));
#456=DIRECTION('ref_axis',(-1.,0.,0.));
#457=DIRECTION('center_axis',(0.,0.,-1.));
#458=DIRECTION('ref_axis',(-1.,0.,0.));
#459=DIRECTION('center_axis',(0.,0.,-1.));
#460=DIRECTION('ref_axis',(-1.,0.,0.));
#461=DIRECTION('center_axis',(0.,0.,1.));
#462=DIRECTION('ref_axis',(-1.,0.,0.));
#463=DIRECTION('center_axis',(0.,0.,1.));
#464=DIRECTION('ref_axis',(-1.,0.,0.));
#465=DIRECTION('center_axis',(0.,0.,-1.));
#466=DIRECTION('ref_axis',(-1.,0.,0.));
#467=DIRECTION('center_axis',(0.,0.,-1.));
#468=DIRECTION('ref_axis',(-1.,0.,0.));
#469=DIRECTION('center_axis',(0.,0.,-1.));
#470=DIRECTION('ref_axis',(1.,0.,0.));
#471=DIRECTION('center_axis',(0.,0.,-1.));
#472=DIRECTION('ref_axis',(-1.,0.,0.));
#473=DIRECTION('center_axis',(0.,0.,-1.));
#474=DIRECTION('ref_axis',(-1.,0.,0.));
#475=DIRECTION('center_axis',(0.,0.,-1.));
#476=DIRECTION('ref_axis',(-1.,0.,0.));
#477=DIRECTION('center_axis',(0.,0.,1.));
#478=DIRECTION('ref_axis',(1.,0.,0.));
#479=DIRECTION('center_axis',(0.,0.,-1.));
#480=DIRECTION('ref_axis',(-1.,0.,0.));
#481=DIRECTION('center_axis',(0.,0.,1.));
#482=DIRECTION('ref_axis',(-1.,0.,0.));
#483=DIRECTION('center_axis',(0.,0.,-1.));
#484=DIRECTION('ref_axis',(-1.,0.,0.));
#485=DIRECTION('center_axis',(0.,0.,-1.));
#486=DIRECTION('ref_axis',(1.,0.,0.));
#487=DIRECTION('center_axis',(0.,0.,-1.));
#488=DIRECTION('ref_axis',(1.,0.,0.));
#489=DIRECTION('center_axis',(0.,0.,1.));
#490=DIRECTION('ref_axis',(-1.,0.,0.));
#491=DIRECTION('center_axis',(0.,0.,1.));
#492=DIRECTION('ref_axis',(-1.,0.,0.));
#493=DIRECTION('center_axis',(0.,0.,-1.));
#494=DIRECTION('ref_axis',(1.,0.,0.));
#495=DIRECTION('center_axis',(0.,0.,-1.));
#496=DIRECTION('ref_axis',(-1.,0.,0.));
#497=DIRECTION('center_axis',(0.,0.,-1.));
#498=DIRECTION('ref_axis',(-1.,0.,0.));
#499=DIRECTION('center_axis',(0.,0.,1.));
#500=DIRECTION('ref_axis',(-1.,0.,0.));
#501=DIRECTION('center_axis',(0.,0.,-1.));
#502=DIRECTION('ref_axis',(-1.,0.,0.));
#503=DIRECTION('center_axis',(0.,0.,-1.));
#504=DIRECTION('ref_axis',(-1.,0.,0.));
#505=DIRECTION('center_axis',(0.,0.,-1.));
#506=DIRECTION('ref_axis',(-1.,0.,0.));
#507=DIRECTION('center_axis',(0.,0.,1.));
#508=DIRECTION('ref_axis',(-1.,0.,0.));
#509=DIRECTION('center_axis',(0.,0.,-1.));
#510=DIRECTION('ref_axis',(-1.,0.,0.));
#511=DIRECTION('center_axis',(0.,0.,1.));
#512=DIRECTION('ref_axis',(-1.,0.,0.));
#513=DIRECTION('center_axis',(0.,0.,-1.));
#514=DIRECTION('ref_axis',(-1.,0.,0.));
#515=DIRECTION('center_axis',(0.,0.,1.));
#516=DIRECTION('ref_axis',(-1.,0.,0.));
#517=DIRECTION('center_axis',(0.,0.,1.));
#518=DIRECTION('ref_axis',(-1.,0.,0.));
#519=DIRECTION('center_axis',(0.,0.,-1.));
#520=DIRECTION('ref_axis',(-1.,0.,0.));
#521=DIRECTION('center_axis',(0.,0.,1.));
#522=DIRECTION('ref_axis',(-1.,0.,0.));
#523=DIRECTION('center_axis',(0.,0.,1.));
#524=DIRECTION('ref_axis',(-1.,0.,0.));
#525=DIRECTION('center_axis',(0.,0.,-1.));
#526=DIRECTION('ref_axis',(-1.,0.,0.));
#527=DIRECTION('center_axis',(0.,0.,-1.));
#528=DIRECTION('ref_axis',(-1.,0.,0.));
#529=DIRECTION('center_axis',(0.,0.,-1.));
#530=DIRECTION('ref_axis',(1.,0.,0.));
#531=DIRECTION('center_axis',(0.,0.,-1.));
#532=DIRECTION('ref_axis',(-1.,0.,0.));
#533=DIRECTION('center_axis',(0.,0.,-1.));
#534=DIRECTION('ref_axis',(-1.,0.,0.));
#535=DIRECTION('center_axis',(0.,0.,1.));
#536=DIRECTION('ref_axis',(-1.,0.,0.));
#537=DIRECTION('center_axis',(0.,0.,1.));
#538=DIRECTION('ref_axis',(-1.,0.,0.));
#539=DIRECTION('center_axis',(0.,0.,-1.));
#540=DIRECTION('ref_axis',(-1.,0.,0.));
#541=DIRECTION('center_axis',(0.,0.,1.));
#542=DIRECTION('ref_axis',(-1.,0.,0.));
#543=DIRECTION('center_axis',(0.,0.,1.));
#544=DIRECTION('ref_axis',(-1.,0.,0.));
#545=DIRECTION('center_axis',(0.,0.,1.));
#546=DIRECTION('ref_axis',(-1.,0.,0.));
#547=CARTESIAN_POINT('',(0.,0.,0.));
#548=CARTESIAN_POINT('Origin',(0.,0.,0.4935));
#549=CARTESIAN_POINT('',(-0.0625,0.,0.));
#550=CARTESIAN_POINT('Origin',(0.,0.,0.));
#551=CARTESIAN_POINT('',(-0.0625,0.,0.987));
#552=CARTESIAN_POINT('Origin',(0.,0.,0.987));
#553=CARTESIAN_POINT('Origin',(0.,0.,0.987));
#554=CARTESIAN_POINT('',(-0.0375,4.59227382683391E-18,0.987));
#555=CARTESIAN_POINT('Origin',(0.,0.,0.987));
#556=CARTESIAN_POINT('Origin',(0.,0.,0.005));
#557=CARTESIAN_POINT('',(0.187,-2.29001388164785E-17,0.01));
#558=CARTESIAN_POINT('Origin',(0.,0.,0.01));
#559=CARTESIAN_POINT('',(0.177,2.16755324626561E-17,0.));
#560=CARTESIAN_POINT('Origin',(0.,0.,0.));
#561=CARTESIAN_POINT('Origin',(0.,0.,0.));
#562=CARTESIAN_POINT('',(0.187,2.29001388164785E-17,0.898));
#563=CARTESIAN_POINT('Origin',(0.,0.,0.898));
#564=CARTESIAN_POINT('Origin',(0.,0.,0.));
#565=CARTESIAN_POINT('Origin',(0.,0.,1.057));
#566=CARTESIAN_POINT('',(0.1375,-1.68383373650577E-17,1.062));
#567=CARTESIAN_POINT('Origin',(0.,0.,1.062));
#568=CARTESIAN_POINT('',(0.1475,1.80629437188801E-17,1.052));
#569=CARTESIAN_POINT('Origin',(0.,0.,1.052));
#570=CARTESIAN_POINT('Origin',(0.,0.,0.937));
#571=CARTESIAN_POINT('',(0.1475,1.80629437188801E-17,0.937));
#572=CARTESIAN_POINT('Origin',(0.,0.,0.937));
#573=CARTESIAN_POINT('Origin',(0.,0.,1.062));
#574=CARTESIAN_POINT('',(0.0375,0.,1.062));
#575=CARTESIAN_POINT('Origin',(0.,0.,1.062));
#576=CARTESIAN_POINT('Origin',(0.,0.,0.9175));
#577=CARTESIAN_POINT('',(0.148,-1.81241740365712E-17,0.937));
#578=CARTESIAN_POINT('Origin',(0.,0.,0.937));
#579=CARTESIAN_POINT('Origin',(0.,0.,0.937));
#580=CARTESIAN_POINT('Origin',(0.,0.,-0.124421510256789));
#581=CARTESIAN_POINT('Origin',(0.,0.,0.7305));
#582=CARTESIAN_POINT('',(0.1605,1.96549319788492E-17,0.744));
#583=CARTESIAN_POINT('Origin',(0.,0.,0.744));
#584=CARTESIAN_POINT('',(0.1875,-2.29613691341696E-17,0.717));
#585=CARTESIAN_POINT('Origin',(0.,0.,0.717));
#586=CARTESIAN_POINT('Origin',(0.,0.,0.967));
#587=CARTESIAN_POINT('',(0.1605,0.,1.217));
#588=CARTESIAN_POINT('Origin',(0.,0.,1.217));
#589=CARTESIAN_POINT('Origin',(0.,0.,0.717));
#590=CARTESIAN_POINT('',(0.22,2.69413397840923E-17,0.717));
#591=CARTESIAN_POINT('Origin',(0.,0.,0.717));
#592=CARTESIAN_POINT('Origin',(0.,0.,1.217));
#593=CARTESIAN_POINT('',(0.0385,-4.71473446221615E-18,1.217));
#594=CARTESIAN_POINT('Origin',(0.,0.,1.217));
#595=CARTESIAN_POINT('Origin',(0.,0.,1.327));
#596=CARTESIAN_POINT('',(0.25,3.06151588455594E-17,1.312));
#597=CARTESIAN_POINT('Origin',(0.,0.,1.312));
#598=CARTESIAN_POINT('',(0.22,-2.69413397840923E-17,1.342));
#599=CARTESIAN_POINT('Origin',(0.,0.,1.342));
#600=CARTESIAN_POINT('Origin',(0.,0.,1.342));
#601=CARTESIAN_POINT('',(0.25,-3.06151588455594E-17,0.747));
#602=CARTESIAN_POINT('Origin',(0.,0.,0.747));
#603=CARTESIAN_POINT('Origin',(0.,0.,1.342));
#604=CARTESIAN_POINT('',(0.0385,-4.71473446221615E-18,1.342));
#605=CARTESIAN_POINT('Origin',(0.,0.,1.342));
#606=CARTESIAN_POINT('Origin',(0.,0.,0.732));
#607=CARTESIAN_POINT('Origin',(0.,0.,1.342));
#608=CARTESIAN_POINT('Origin',(0.,0.,1.0945));
#609=CARTESIAN_POINT('',(0.088,1.07765359136369E-17,1.0945));
#610=CARTESIAN_POINT('Origin',(0.,0.,1.0945));
#611=CARTESIAN_POINT('',(0.0605,-7.40886844062538E-18,1.122));
#612=CARTESIAN_POINT('Origin',(0.,0.,1.122));
#613=CARTESIAN_POINT('Origin',(0.,0.,1.122));
#614=CARTESIAN_POINT('',(0.0555,6.7965652637142E-18,1.122));
#615=CARTESIAN_POINT('Origin',(0.,0.,1.122));
#616=CARTESIAN_POINT('Origin',(0.,0.,1.122));
#617=CARTESIAN_POINT('',(0.088,-1.07765359136369E-17,1.0895));
#618=CARTESIAN_POINT('Origin',(0.,0.,1.0895));
#619=CARTESIAN_POINT('Origin',(0.,0.,1.0945));
#620=CARTESIAN_POINT('',(0.028,-3.42889779070266E-18,1.0945));
#621=CARTESIAN_POINT('Origin',(0.,0.,1.0945));
#622=CARTESIAN_POINT('Origin',(0.,0.,1.122));
#623=CARTESIAN_POINT('',(0.028,3.42889779070266E-18,1.0895));
#624=CARTESIAN_POINT('Origin',(0.,0.,1.0895));
#625=CARTESIAN_POINT('Origin',(0.,0.,1.0895));
#626=CARTESIAN_POINT('',(0.0555,-6.7965652637142E-18,1.062));
#627=CARTESIAN_POINT('Origin',(0.,0.,1.062));
#628=CARTESIAN_POINT('Origin',(0.,0.,1.062));
#629=CARTESIAN_POINT('',(0.0605,7.40886844062538E-18,1.062));
#630=CARTESIAN_POINT('Origin',(0.,0.,1.062));
#631=CARTESIAN_POINT('Origin',(0.,0.,1.0895));
#632=UNCERTAINTY_MEASURE_WITH_UNIT(LENGTH_MEASURE(0.000393700787401575),
#637,'DISTANCE_ACCURACY_VALUE',
'Maximum model space distance between geometric entities at asserted c
onnectivities');
#633=UNCERTAINTY_MEASURE_WITH_UNIT(LENGTH_MEASURE(0.000393700787401575),
#637,'DISTANCE_ACCURACY_VALUE',
'Maximum model space distance between geometric entities at asserted c
onnectivities');
#634=(
GEOMETRIC_REPRESENTATION_CONTEXT(3)
GLOBAL_UNCERTAINTY_ASSIGNED_CONTEXT((#632))
GLOBAL_UNIT_ASSIGNED_CONTEXT((#637,#642,#641))
REPRESENTATION_CONTEXT('','3D')
);
#635=(
GEOMETRIC_REPRESENTATION_CONTEXT(3)
GLOBAL_UNCERTAINTY_ASSIGNED_CONTEXT((#633))
GLOBAL_UNIT_ASSIGNED_CONTEXT((#637,#642,#641))
REPRESENTATION_CONTEXT('','3D')
);
#636=DIMENSIONAL_EXPONENTS(1.,0.,0.,0.,0.,0.,0.);
#637=(
CONVERSION_BASED_UNIT('inch',#640)
LENGTH_UNIT()
NAMED_UNIT(#636)
);
#638=(
LENGTH_UNIT()
NAMED_UNIT(*)
SI_UNIT(.MILLI.,.METRE.)
);
#639=(
LENGTH_UNIT()
NAMED_UNIT(*)
SI_UNIT(.CENTI.,.METRE.)
);
#640=LENGTH_MEASURE_WITH_UNIT(LENGTH_MEASURE(25.4),#638);
#641=(
NAMED_UNIT(*)
SI_UNIT($,.STERADIAN.)
SOLID_ANGLE_UNIT()
);
#642=(
NAMED_UNIT(*)
PLANE_ANGLE_UNIT()
SI_UNIT($,.RADIAN.)
);
#643=SHAPE_DEFINITION_REPRESENTATION(#644,#645);
#644=PRODUCT_DEFINITION_SHAPE('',$,#647);
#645=SHAPE_REPRESENTATION('',(#376),#634);
#646=PRODUCT_DEFINITION_CONTEXT('part definition',#651,'design');
#647=PRODUCT_DEFINITION('1000101a','1000101a',#648,#646);
#648=PRODUCT_DEFINITION_FORMATION('',$,#653);
#649=PRODUCT_RELATED_PRODUCT_CATEGORY('1000101a','1000101a',(#653));
#650=APPLICATION_PROTOCOL_DEFINITION('international standard',
'automotive_design',2009,#651);
#651=APPLICATION_CONTEXT(
'Core Data for Automotive Mechanical Design Process');
#652=PRODUCT_CONTEXT('part definition',#651,'mechanical');
#653=PRODUCT('1000101a','1000101a',$,(#652));
#654=PRESENTATION_STYLE_ASSIGNMENT((#658));
#655=PRESENTATION_STYLE_ASSIGNMENT((#659));
#656=PRESENTATION_STYLE_ASSIGNMENT((#660));
#657=PRESENTATION_STYLE_ASSIGNMENT((#661));
#658=SURFACE_STYLE_USAGE(.BOTH.,#662);
#659=SURFACE_STYLE_USAGE(.BOTH.,#663);
#660=SURFACE_STYLE_USAGE(.BOTH.,#664);
#661=SURFACE_STYLE_USAGE(.BOTH.,#665);
#662=SURFACE_SIDE_STYLE('',(#666));
#663=SURFACE_SIDE_STYLE('',(#667));
#664=SURFACE_SIDE_STYLE('',(#668));
#665=SURFACE_SIDE_STYLE('',(#669));
#666=SURFACE_STYLE_FILL_AREA(#670);
#667=SURFACE_STYLE_FILL_AREA(#671);
#668=SURFACE_STYLE_FILL_AREA(#672);
#669=SURFACE_STYLE_FILL_AREA(#673);
#670=FILL_AREA_STYLE('',(#674));
#671=FILL_AREA_STYLE('',(#675));
#672=FILL_AREA_STYLE('',(#676));
#673=FILL_AREA_STYLE('',(#677));
#674=FILL_AREA_STYLE_COLOUR('',#678);
#675=FILL_AREA_STYLE_COLOUR('',#679);
#676=FILL_AREA_STYLE_COLOUR('',#680);
#677=FILL_AREA_STYLE_COLOUR('',#681);
#678=COLOUR_RGB('',0.749019607843137,0.749019607843137,0.749019607843137);
#679=COLOUR_RGB('',0.87843137254902,0.874509803921569,0.858823529411765);
#680=COLOUR_RGB('',0.482352941176471,0.482352941176471,0.482352941176471);
#681=COLOUR_RGB('',0.250980392156863,0.250980392156863,0.250980392156863);
ENDSEC;
END-ISO-10303-21;
