ISO-10303-21;
HEADER;
/* Generated by software containing ST-Developer
 * from STEP Tools, Inc. (www.steptools.com) 
 */

FILE_DESCRIPTION(
/* description */ (''),
/* implementation_level */ '2;1');

FILE_NAME(
/* name */ 'G:\\drawings\\part models\\1000006a.stp',
/* time_stamp */ '2019-09-09T11:08:06-04:00',
/* author */ ('Dale_K'),
/* organization */ (''),
/* preprocessor_version */ 'ST-DEVELOPER v16.13',
/* originating_system */ 'Autodesk Inventor 2018',
/* authorisation */ '');

FILE_SCHEMA (('AUTOMOTIVE_DESIGN { 1 0 10303 214 3 1 1 }'));
ENDSEC;

DATA;
#10=MECHANICAL_DESIGN_GEOMETRIC_PRESENTATION_REPRESENTATION('',(#252,#249,
#251,#254,#250,#255,#256,#253,#257,#262,#258,#264,#260,#263,#265,#259,#261,
#267,#268,#269,#266,#270,#272,#271),#534);
#11=SHAPE_REPRESENTATION_RELATIONSHIP('SRR','None',#544,#12);
#12=ADVANCED_BREP_SHAPE_REPRESENTATION('',(#13),#533);
#13=MANIFOLD_SOLID_BREP('Solid1',#296);
#14=TOROIDAL_SURFACE('',#358,0.3585,0.046);
#15=TOROIDAL_SURFACE('',#362,0.3585,0.046);
#16=CONICAL_SURFACE('',#322,0.7875,1.30899693899575);
#17=CONICAL_SURFACE('',#338,0.484,0.785398163397448);
#18=CONICAL_SURFACE('',#345,0.581,0.785398163397448);
#19=CONICAL_SURFACE('',#354,0.581,0.785398163397449);
#20=CONICAL_SURFACE('',#355,0.4855,0.785398163397448);
#21=PLANE('',#319);
#22=PLANE('',#323);
#23=PLANE('',#325);
#24=PLANE('',#331);
#25=PLANE('',#335);
#26=PLANE('',#348);
#27=PLANE('',#350);
#28=FACE_BOUND('',#75,.T.);
#29=FACE_BOUND('',#77,.T.);
#30=FACE_BOUND('',#79,.T.);
#31=FACE_BOUND('',#81,.T.);
#32=FACE_BOUND('',#83,.T.);
#33=FACE_BOUND('',#85,.T.);
#34=FACE_BOUND('',#87,.T.);
#35=FACE_BOUND('',#89,.T.);
#36=FACE_BOUND('',#91,.T.);
#37=FACE_BOUND('',#93,.T.);
#38=FACE_BOUND('',#95,.T.);
#39=FACE_BOUND('',#97,.T.);
#40=FACE_BOUND('',#99,.T.);
#41=FACE_BOUND('',#101,.T.);
#42=FACE_BOUND('',#103,.T.);
#43=FACE_BOUND('',#105,.T.);
#44=FACE_BOUND('',#107,.T.);
#45=FACE_BOUND('',#109,.T.);
#46=FACE_BOUND('',#111,.T.);
#47=FACE_BOUND('',#113,.T.);
#48=FACE_BOUND('',#115,.T.);
#49=FACE_BOUND('',#117,.T.);
#50=FACE_BOUND('',#119,.T.);
#51=FACE_OUTER_BOUND('',#74,.T.);
#52=FACE_OUTER_BOUND('',#76,.T.);
#53=FACE_OUTER_BOUND('',#78,.T.);
#54=FACE_OUTER_BOUND('',#80,.T.);
#55=FACE_OUTER_BOUND('',#82,.T.);
#56=FACE_OUTER_BOUND('',#84,.T.);
#57=FACE_OUTER_BOUND('',#86,.T.);
#58=FACE_OUTER_BOUND('',#88,.T.);
#59=FACE_OUTER_BOUND('',#90,.T.);
#60=FACE_OUTER_BOUND('',#92,.T.);
#61=FACE_OUTER_BOUND('',#94,.T.);
#62=FACE_OUTER_BOUND('',#96,.T.);
#63=FACE_OUTER_BOUND('',#98,.T.);
#64=FACE_OUTER_BOUND('',#100,.T.);
#65=FACE_OUTER_BOUND('',#102,.T.);
#66=FACE_OUTER_BOUND('',#104,.T.);
#67=FACE_OUTER_BOUND('',#106,.T.);
#68=FACE_OUTER_BOUND('',#108,.T.);
#69=FACE_OUTER_BOUND('',#110,.T.);
#70=FACE_OUTER_BOUND('',#112,.T.);
#71=FACE_OUTER_BOUND('',#114,.T.);
#72=FACE_OUTER_BOUND('',#116,.T.);
#73=FACE_OUTER_BOUND('',#118,.T.);
#74=EDGE_LOOP('',(#192));
#75=EDGE_LOOP('',(#193));
#76=EDGE_LOOP('',(#194));
#77=EDGE_LOOP('',(#195));
#78=EDGE_LOOP('',(#196));
#79=EDGE_LOOP('',(#197));
#80=EDGE_LOOP('',(#198));
#81=EDGE_LOOP('',(#199));
#82=EDGE_LOOP('',(#200));
#83=EDGE_LOOP('',(#201));
#84=EDGE_LOOP('',(#202));
#85=EDGE_LOOP('',(#203));
#86=EDGE_LOOP('',(#204));
#87=EDGE_LOOP('',(#205));
#88=EDGE_LOOP('',(#206));
#89=EDGE_LOOP('',(#207));
#90=EDGE_LOOP('',(#208));
#91=EDGE_LOOP('',(#209));
#92=EDGE_LOOP('',(#210));
#93=EDGE_LOOP('',(#211));
#94=EDGE_LOOP('',(#212));
#95=EDGE_LOOP('',(#213));
#96=EDGE_LOOP('',(#214));
#97=EDGE_LOOP('',(#215));
#98=EDGE_LOOP('',(#216));
#99=EDGE_LOOP('',(#217,#218));
#100=EDGE_LOOP('',(#219));
#101=EDGE_LOOP('',(#220));
#102=EDGE_LOOP('',(#221));
#103=EDGE_LOOP('',(#222));
#104=EDGE_LOOP('',(#223));
#105=EDGE_LOOP('',(#224));
#106=EDGE_LOOP('',(#225));
#107=EDGE_LOOP('',(#226));
#108=EDGE_LOOP('',(#227));
#109=EDGE_LOOP('',(#228));
#110=EDGE_LOOP('',(#229));
#111=EDGE_LOOP('',(#230));
#112=EDGE_LOOP('',(#231));
#113=EDGE_LOOP('',(#232,#233));
#114=EDGE_LOOP('',(#234));
#115=EDGE_LOOP('',(#235));
#116=EDGE_LOOP('',(#236));
#117=EDGE_LOOP('',(#237));
#118=EDGE_LOOP('',(#238));
#119=EDGE_LOOP('',(#239));
#120=CIRCLE('',#317,0.7875);
#121=CIRCLE('',#318,0.7875);
#122=CIRCLE('',#320,0.48893593539449);
#123=CIRCLE('',#321,0.4375);
#124=CIRCLE('',#324,0.5155);
#125=CIRCLE('',#326,0.5155);
#126=CIRCLE('',#327,0.32);
#127=CIRCLE('',#330,0.32);
#128=CIRCLE('',#332,0.3585);
#129=CIRCLE('',#333,0.32);
#130=CIRCLE('',#336,0.469);
#131=CIRCLE('',#337,0.4375);
#132=CIRCLE('',#339,0.485999999999999);
#133=CIRCLE('',#342,0.32);
#134=CIRCLE('',#343,0.32);
#135=CIRCLE('',#344,0.32);
#136=CIRCLE('',#346,0.5685);
#137=CIRCLE('',#347,0.5935);
#138=CIRCLE('',#349,0.498);
#139=CIRCLE('',#351,0.5685);
#140=CIRCLE('',#353,0.5935);
#141=CIRCLE('',#357,0.32);
#142=CIRCLE('',#359,0.3125);
#143=CIRCLE('',#361,0.3125);
#144=VERTEX_POINT('',#461);
#145=VERTEX_POINT('',#463);
#146=VERTEX_POINT('',#466);
#147=VERTEX_POINT('',#468);
#148=VERTEX_POINT('',#472);
#149=VERTEX_POINT('',#475);
#150=VERTEX_POINT('',#477);
#151=VERTEX_POINT('',#481);
#152=VERTEX_POINT('',#484);
#153=VERTEX_POINT('',#486);
#154=VERTEX_POINT('',#490);
#155=VERTEX_POINT('',#492);
#156=VERTEX_POINT('',#495);
#157=VERTEX_POINT('',#499);
#158=VERTEX_POINT('',#501);
#159=VERTEX_POINT('',#502);
#160=VERTEX_POINT('',#506);
#161=VERTEX_POINT('',#508);
#162=VERTEX_POINT('',#511);
#163=VERTEX_POINT('',#514);
#164=VERTEX_POINT('',#517);
#165=VERTEX_POINT('',#522);
#166=VERTEX_POINT('',#525);
#167=VERTEX_POINT('',#528);
#168=EDGE_CURVE('',#144,#144,#120,.T.);
#169=EDGE_CURVE('',#145,#145,#121,.T.);
#170=EDGE_CURVE('',#146,#146,#122,.T.);
#171=EDGE_CURVE('',#147,#147,#123,.T.);
#172=EDGE_CURVE('',#148,#148,#124,.T.);
#173=EDGE_CURVE('',#149,#149,#125,.T.);
#174=EDGE_CURVE('',#150,#150,#126,.T.);
#175=EDGE_CURVE('',#151,#151,#127,.T.);
#176=EDGE_CURVE('',#152,#152,#128,.T.);
#177=EDGE_CURVE('',#153,#153,#129,.T.);
#178=EDGE_CURVE('',#154,#154,#130,.T.);
#179=EDGE_CURVE('',#155,#155,#131,.T.);
#180=EDGE_CURVE('',#156,#156,#132,.T.);
#181=EDGE_CURVE('',#157,#157,#133,.T.);
#182=EDGE_CURVE('',#158,#159,#134,.T.);
#183=EDGE_CURVE('',#159,#158,#135,.T.);
#184=EDGE_CURVE('',#160,#160,#136,.T.);
#185=EDGE_CURVE('',#161,#161,#137,.T.);
#186=EDGE_CURVE('',#162,#162,#138,.T.);
#187=EDGE_CURVE('',#163,#163,#139,.T.);
#188=EDGE_CURVE('',#164,#164,#140,.T.);
#189=EDGE_CURVE('',#165,#165,#141,.T.);
#190=EDGE_CURVE('',#166,#166,#142,.T.);
#191=EDGE_CURVE('',#167,#167,#143,.T.);
#192=ORIENTED_EDGE('',*,*,#168,.T.);
#193=ORIENTED_EDGE('',*,*,#169,.F.);
#194=ORIENTED_EDGE('',*,*,#170,.F.);
#195=ORIENTED_EDGE('',*,*,#171,.T.);
#196=ORIENTED_EDGE('',*,*,#170,.T.);
#197=ORIENTED_EDGE('',*,*,#169,.T.);
#198=ORIENTED_EDGE('',*,*,#168,.F.);
#199=ORIENTED_EDGE('',*,*,#172,.T.);
#200=ORIENTED_EDGE('',*,*,#173,.T.);
#201=ORIENTED_EDGE('',*,*,#174,.F.);
#202=ORIENTED_EDGE('',*,*,#173,.F.);
#203=ORIENTED_EDGE('',*,*,#172,.F.);
#204=ORIENTED_EDGE('',*,*,#174,.T.);
#205=ORIENTED_EDGE('',*,*,#175,.T.);
#206=ORIENTED_EDGE('',*,*,#176,.T.);
#207=ORIENTED_EDGE('',*,*,#177,.T.);
#208=ORIENTED_EDGE('',*,*,#175,.F.);
#209=ORIENTED_EDGE('',*,*,#177,.F.);
#210=ORIENTED_EDGE('',*,*,#178,.F.);
#211=ORIENTED_EDGE('',*,*,#179,.F.);
#212=ORIENTED_EDGE('',*,*,#180,.T.);
#213=ORIENTED_EDGE('',*,*,#178,.T.);
#214=ORIENTED_EDGE('',*,*,#179,.T.);
#215=ORIENTED_EDGE('',*,*,#171,.F.);
#216=ORIENTED_EDGE('',*,*,#181,.F.);
#217=ORIENTED_EDGE('',*,*,#182,.T.);
#218=ORIENTED_EDGE('',*,*,#183,.T.);
#219=ORIENTED_EDGE('',*,*,#184,.T.);
#220=ORIENTED_EDGE('',*,*,#185,.T.);
#221=ORIENTED_EDGE('',*,*,#184,.F.);
#222=ORIENTED_EDGE('',*,*,#186,.F.);
#223=ORIENTED_EDGE('',*,*,#187,.F.);
#224=ORIENTED_EDGE('',*,*,#181,.T.);
#225=ORIENTED_EDGE('',*,*,#185,.F.);
#226=ORIENTED_EDGE('',*,*,#188,.F.);
#227=ORIENTED_EDGE('',*,*,#188,.T.);
#228=ORIENTED_EDGE('',*,*,#187,.T.);
#229=ORIENTED_EDGE('',*,*,#186,.T.);
#230=ORIENTED_EDGE('',*,*,#180,.F.);
#231=ORIENTED_EDGE('',*,*,#189,.T.);
#232=ORIENTED_EDGE('',*,*,#183,.F.);
#233=ORIENTED_EDGE('',*,*,#182,.F.);
#234=ORIENTED_EDGE('',*,*,#190,.T.);
#235=ORIENTED_EDGE('',*,*,#176,.F.);
#236=ORIENTED_EDGE('',*,*,#190,.F.);
#237=ORIENTED_EDGE('',*,*,#191,.F.);
#238=ORIENTED_EDGE('',*,*,#191,.T.);
#239=ORIENTED_EDGE('',*,*,#189,.F.);
#240=CYLINDRICAL_SURFACE('',#316,0.7875);
#241=CYLINDRICAL_SURFACE('',#328,0.5155);
#242=CYLINDRICAL_SURFACE('',#329,0.32);
#243=CYLINDRICAL_SURFACE('',#334,0.32);
#244=CYLINDRICAL_SURFACE('',#340,0.4375);
#245=CYLINDRICAL_SURFACE('',#341,0.32);
#246=CYLINDRICAL_SURFACE('',#352,0.5935);
#247=CYLINDRICAL_SURFACE('',#356,0.32);
#248=CYLINDRICAL_SURFACE('',#360,0.3125);
#249=STYLED_ITEM('',(#554),#273);
#250=STYLED_ITEM('',(#554),#274);
#251=STYLED_ITEM('',(#554),#275);
#252=STYLED_ITEM('',(#554),#276);
#253=STYLED_ITEM('',(#554),#277);
#254=STYLED_ITEM('',(#554),#278);
#255=STYLED_ITEM('',(#554),#279);
#256=STYLED_ITEM('',(#555),#280);
#257=STYLED_ITEM('',(#555),#281);
#258=STYLED_ITEM('',(#555),#282);
#259=STYLED_ITEM('',(#555),#283);
#260=STYLED_ITEM('',(#555),#284);
#261=STYLED_ITEM('',(#555),#285);
#262=STYLED_ITEM('',(#555),#286);
#263=STYLED_ITEM('',(#555),#287);
#264=STYLED_ITEM('',(#555),#288);
#265=STYLED_ITEM('',(#556),#289);
#266=STYLED_ITEM('',(#555),#290);
#267=STYLED_ITEM('',(#555),#291);
#268=STYLED_ITEM('',(#555),#292);
#269=STYLED_ITEM('',(#557),#293);
#270=STYLED_ITEM('',(#557),#294);
#271=STYLED_ITEM('',(#557),#295);
#272=STYLED_ITEM('',(#553),#13);
#273=ADVANCED_FACE('',(#51,#28),#240,.T.);
#274=ADVANCED_FACE('',(#52,#29),#21,.F.);
#275=ADVANCED_FACE('',(#53,#30),#16,.T.);
#276=ADVANCED_FACE('',(#54,#31),#22,.F.);
#277=ADVANCED_FACE('',(#55,#32),#23,.F.);
#278=ADVANCED_FACE('',(#56,#33),#241,.F.);
#279=ADVANCED_FACE('',(#57,#34),#242,.F.);
#280=ADVANCED_FACE('',(#58,#35),#24,.F.);
#281=ADVANCED_FACE('',(#59,#36),#243,.F.);
#282=ADVANCED_FACE('',(#60,#37),#25,.F.);
#283=ADVANCED_FACE('',(#61,#38),#17,.T.);
#284=ADVANCED_FACE('',(#62,#39),#244,.T.);
#285=ADVANCED_FACE('',(#63,#40),#245,.F.);
#286=ADVANCED_FACE('',(#64,#41),#18,.T.);
#287=ADVANCED_FACE('',(#65,#42),#26,.F.);
#288=ADVANCED_FACE('',(#66,#43),#27,.T.);
#289=ADVANCED_FACE('',(#67,#44),#246,.T.);
#290=ADVANCED_FACE('',(#68,#45),#19,.T.);
#291=ADVANCED_FACE('',(#69,#46),#20,.F.);
#292=ADVANCED_FACE('',(#70,#47),#247,.F.);
#293=ADVANCED_FACE('',(#71,#48),#14,.T.);
#294=ADVANCED_FACE('',(#72,#49),#248,.F.);
#295=ADVANCED_FACE('',(#73,#50),#15,.T.);
#296=CLOSED_SHELL('',(#273,#274,#275,#276,#277,#278,#279,#280,#281,#282,
#283,#284,#285,#286,#287,#288,#289,#290,#291,#292,#293,#294,#295));
#297=DERIVED_UNIT_ELEMENT(#299,0.);
#298=DERIVED_UNIT_ELEMENT(#538,0.);
#299=(
MASS_UNIT()
NAMED_UNIT(*)
SI_UNIT($,.GRAM.)
);
#300=DERIVED_UNIT((#297,#298));
#301=MEASURE_REPRESENTATION_ITEM('density measure',
POSITIVE_RATIO_MEASURE(1.),#300);
#302=PROPERTY_DEFINITION_REPRESENTATION(#307,#304);
#303=PROPERTY_DEFINITION_REPRESENTATION(#308,#305);
#304=REPRESENTATION('material name',(#306),#533);
#305=REPRESENTATION('density',(#301),#533);
#306=DESCRIPTIVE_REPRESENTATION_ITEM('Generic','Generic');
#307=PROPERTY_DEFINITION('material property','material name',#546);
#308=PROPERTY_DEFINITION('material property','density of part',#546);
#309=DATE_TIME_ROLE('creation_date');
#310=APPLIED_DATE_AND_TIME_ASSIGNMENT(#311,#309,(#546));
#311=DATE_AND_TIME(#312,#313);
#312=CALENDAR_DATE(2019,9,9);
#313=LOCAL_TIME(15,7,30.,#314);
#314=COORDINATED_UNIVERSAL_TIME_OFFSET(0,0,.BEHIND.);
#315=AXIS2_PLACEMENT_3D('placement',#459,#363,#364);
#316=AXIS2_PLACEMENT_3D('',#460,#365,#366);
#317=AXIS2_PLACEMENT_3D('',#462,#367,#368);
#318=AXIS2_PLACEMENT_3D('',#464,#369,#370);
#319=AXIS2_PLACEMENT_3D('',#465,#371,#372);
#320=AXIS2_PLACEMENT_3D('',#467,#373,#374);
#321=AXIS2_PLACEMENT_3D('',#469,#375,#376);
#322=AXIS2_PLACEMENT_3D('',#470,#377,#378);
#323=AXIS2_PLACEMENT_3D('',#471,#379,#380);
#324=AXIS2_PLACEMENT_3D('',#473,#381,#382);
#325=AXIS2_PLACEMENT_3D('',#474,#383,#384);
#326=AXIS2_PLACEMENT_3D('',#476,#385,#386);
#327=AXIS2_PLACEMENT_3D('',#478,#387,#388);
#328=AXIS2_PLACEMENT_3D('',#479,#389,#390);
#329=AXIS2_PLACEMENT_3D('',#480,#391,#392);
#330=AXIS2_PLACEMENT_3D('',#482,#393,#394);
#331=AXIS2_PLACEMENT_3D('',#483,#395,#396);
#332=AXIS2_PLACEMENT_3D('',#485,#397,#398);
#333=AXIS2_PLACEMENT_3D('',#487,#399,#400);
#334=AXIS2_PLACEMENT_3D('',#488,#401,#402);
#335=AXIS2_PLACEMENT_3D('',#489,#403,#404);
#336=AXIS2_PLACEMENT_3D('',#491,#405,#406);
#337=AXIS2_PLACEMENT_3D('',#493,#407,#408);
#338=AXIS2_PLACEMENT_3D('',#494,#409,#410);
#339=AXIS2_PLACEMENT_3D('',#496,#411,#412);
#340=AXIS2_PLACEMENT_3D('',#497,#413,#414);
#341=AXIS2_PLACEMENT_3D('',#498,#415,#416);
#342=AXIS2_PLACEMENT_3D('',#500,#417,#418);
#343=AXIS2_PLACEMENT_3D('',#503,#419,#420);
#344=AXIS2_PLACEMENT_3D('',#504,#421,#422);
#345=AXIS2_PLACEMENT_3D('',#505,#423,#424);
#346=AXIS2_PLACEMENT_3D('',#507,#425,#426);
#347=AXIS2_PLACEMENT_3D('',#509,#427,#428);
#348=AXIS2_PLACEMENT_3D('',#510,#429,#430);
#349=AXIS2_PLACEMENT_3D('',#512,#431,#432);
#350=AXIS2_PLACEMENT_3D('',#513,#433,#434);
#351=AXIS2_PLACEMENT_3D('',#515,#435,#436);
#352=AXIS2_PLACEMENT_3D('',#516,#437,#438);
#353=AXIS2_PLACEMENT_3D('',#518,#439,#440);
#354=AXIS2_PLACEMENT_3D('',#519,#441,#442);
#355=AXIS2_PLACEMENT_3D('',#520,#443,#444);
#356=AXIS2_PLACEMENT_3D('',#521,#445,#446);
#357=AXIS2_PLACEMENT_3D('',#523,#447,#448);
#358=AXIS2_PLACEMENT_3D('',#524,#449,#450);
#359=AXIS2_PLACEMENT_3D('',#526,#451,#452);
#360=AXIS2_PLACEMENT_3D('',#527,#453,#454);
#361=AXIS2_PLACEMENT_3D('',#529,#455,#456);
#362=AXIS2_PLACEMENT_3D('',#530,#457,#458);
#363=DIRECTION('axis',(0.,0.,1.));
#364=DIRECTION('refdir',(1.,0.,0.));
#365=DIRECTION('center_axis',(0.,0.,1.));
#366=DIRECTION('ref_axis',(-1.,0.,0.));
#367=DIRECTION('center_axis',(0.,0.,-1.));
#368=DIRECTION('ref_axis',(-1.,0.,0.));
#369=DIRECTION('center_axis',(0.,0.,-1.));
#370=DIRECTION('ref_axis',(-1.,0.,0.));
#371=DIRECTION('center_axis',(0.,0.,1.));
#372=DIRECTION('ref_axis',(1.,0.,0.));
#373=DIRECTION('center_axis',(0.,0.,1.));
#374=DIRECTION('ref_axis',(1.,0.,0.));
#375=DIRECTION('center_axis',(0.,0.,1.));
#376=DIRECTION('ref_axis',(-1.,0.,0.));
#377=DIRECTION('center_axis',(0.,0.,1.));
#378=DIRECTION('ref_axis',(1.,0.,0.));
#379=DIRECTION('center_axis',(0.,0.,-1.));
#380=DIRECTION('ref_axis',(-1.,0.,0.));
#381=DIRECTION('center_axis',(0.,0.,-1.));
#382=DIRECTION('ref_axis',(-1.,0.,0.));
#383=DIRECTION('center_axis',(0.,0.,-1.));
#384=DIRECTION('ref_axis',(-1.,0.,0.));
#385=DIRECTION('center_axis',(0.,0.,1.));
#386=DIRECTION('ref_axis',(-1.,0.,0.));
#387=DIRECTION('center_axis',(0.,0.,1.));
#388=DIRECTION('ref_axis',(-1.,0.,0.));
#389=DIRECTION('center_axis',(0.,0.,-1.));
#390=DIRECTION('ref_axis',(-1.,0.,0.));
#391=DIRECTION('center_axis',(0.,0.,-1.));
#392=DIRECTION('ref_axis',(-1.,0.,0.));
#393=DIRECTION('center_axis',(0.,0.,-1.));
#394=DIRECTION('ref_axis',(-1.,0.,0.));
#395=DIRECTION('center_axis',(0.,0.,1.));
#396=DIRECTION('ref_axis',(-1.,0.,0.));
#397=DIRECTION('center_axis',(2.80210474073106E-16,3.06161698995837E-17,
-1.));
#398=DIRECTION('ref_axis',(-1.,0.,-2.80210474073106E-16));
#399=DIRECTION('center_axis',(0.,0.,1.));
#400=DIRECTION('ref_axis',(-1.,0.,0.));
#401=DIRECTION('center_axis',(0.,0.,1.));
#402=DIRECTION('ref_axis',(-1.,0.,0.));
#403=DIRECTION('center_axis',(0.,0.,-1.));
#404=DIRECTION('ref_axis',(1.,0.,0.));
#405=DIRECTION('center_axis',(0.,0.,-1.));
#406=DIRECTION('ref_axis',(1.,0.,0.));
#407=DIRECTION('center_axis',(0.,0.,1.));
#408=DIRECTION('ref_axis',(1.,0.,0.));
#409=DIRECTION('center_axis',(0.,0.,-1.));
#410=DIRECTION('ref_axis',(1.,0.,0.));
#411=DIRECTION('center_axis',(0.,0.,1.));
#412=DIRECTION('ref_axis',(1.,0.,0.));
#413=DIRECTION('center_axis',(0.,0.,-1.));
#414=DIRECTION('ref_axis',(1.,0.,0.));
#415=DIRECTION('center_axis',(8.50014503228634E-17,-9.62964972191976E-35,
1.));
#416=DIRECTION('ref_axis',(1.,7.21644966006352E-16,-8.50014503228634E-17));
#417=DIRECTION('center_axis',(8.50014503228634E-17,-9.62964972191976E-35,
1.));
#418=DIRECTION('ref_axis',(1.,7.21644966006352E-16,-8.50014503228634E-17));
#419=DIRECTION('center_axis',(8.50014503228634E-17,-9.62964972191976E-35,
1.));
#420=DIRECTION('ref_axis',(1.,7.21644966006352E-16,-8.50014503228634E-17));
#421=DIRECTION('center_axis',(8.50014503228634E-17,-9.62964972191976E-35,
1.));
#422=DIRECTION('ref_axis',(1.,7.21644966006352E-16,-8.50014503228634E-17));
#423=DIRECTION('center_axis',(-8.50014503228634E-17,9.62964972191976E-35,
-1.));
#424=DIRECTION('ref_axis',(-1.,-7.21644966006352E-16,8.50014503228634E-17));
#425=DIRECTION('center_axis',(-8.50014503228634E-17,9.62964972191976E-35,
-1.));
#426=DIRECTION('ref_axis',(-1.,-7.21644966006352E-16,8.50014503228634E-17));
#427=DIRECTION('center_axis',(8.50014503228634E-17,-9.62964972191976E-35,
1.));
#428=DIRECTION('ref_axis',(-1.,-7.21644966006352E-16,8.50014503228634E-17));
#429=DIRECTION('center_axis',(-8.50014503228634E-17,9.62964972191976E-35,
-1.));
#430=DIRECTION('ref_axis',(-1.,-7.21644966006352E-16,8.50014503228634E-17));
#431=DIRECTION('center_axis',(8.50014503228634E-17,-9.62964972191976E-35,
1.));
#432=DIRECTION('ref_axis',(-1.,-7.21644966006352E-16,8.50014503228634E-17));
#433=DIRECTION('center_axis',(-8.50014503228634E-17,9.62964972191976E-35,
-1.));
#434=DIRECTION('ref_axis',(-1.,-7.21644966006352E-16,8.50014503228634E-17));
#435=DIRECTION('center_axis',(8.50014503228634E-17,-9.62964972191976E-35,
1.));
#436=DIRECTION('ref_axis',(-1.,-7.21644966006352E-16,8.50014503228634E-17));
#437=DIRECTION('center_axis',(8.50014503228634E-17,-9.62964972191976E-35,
1.));
#438=DIRECTION('ref_axis',(-1.,-7.21644966006352E-16,8.50014503228634E-17));
#439=DIRECTION('center_axis',(-8.50014503228634E-17,9.62964972191976E-35,
-1.));
#440=DIRECTION('ref_axis',(-1.,-7.21644966006352E-16,8.50014503228634E-17));
#441=DIRECTION('center_axis',(8.50014503228634E-17,-9.62964972191976E-35,
1.));
#442=DIRECTION('ref_axis',(-1.,-7.21644966006352E-16,8.50014503228634E-17));
#443=DIRECTION('center_axis',(8.50014503228634E-17,-9.62964972191976E-35,
1.));
#444=DIRECTION('ref_axis',(-1.,-7.21644966006352E-16,8.50014503228634E-17));
#445=DIRECTION('center_axis',(-5.55111512312578E-17,-1.64214663788065E-47,
1.));
#446=DIRECTION('ref_axis',(-1.,4.44089209850063E-16,-5.55111512312578E-17));
#447=DIRECTION('center_axis',(-5.55111512312578E-17,-1.64214663788065E-47,
1.));
#448=DIRECTION('ref_axis',(-1.,4.44089209850063E-16,-5.55111512312578E-17));
#449=DIRECTION('center_axis',(5.60420948146212E-16,6.12323397991674E-17,
-1.));
#450=DIRECTION('ref_axis',(-0.955401550400736,0.295309799180235,-5.48935982509348E-16));
#451=DIRECTION('center_axis',(5.60420948146212E-16,6.12323397991674E-17,
-1.));
#452=DIRECTION('ref_axis',(-0.955401550400736,0.295309799180235,-5.17344532766513E-16));
#453=DIRECTION('center_axis',(-5.60420948146212E-16,-6.12323397991674E-17,
1.));
#454=DIRECTION('ref_axis',(-0.955401550400736,0.295309799180235,-5.17344532766513E-16));
#455=DIRECTION('center_axis',(-5.60420948146212E-16,-6.12323397991674E-17,
1.));
#456=DIRECTION('ref_axis',(-0.955401550400736,0.295309799180235,-5.17344532766513E-16));
#457=DIRECTION('center_axis',(-5.60420948146212E-16,-6.12323397991674E-17,
1.));
#458=DIRECTION('ref_axis',(0.955401550400736,-0.295309799180235,5.48935982509348E-16));
#459=CARTESIAN_POINT('',(0.,0.,0.));
#460=CARTESIAN_POINT('Origin',(0.,0.,0.));
#461=CARTESIAN_POINT('',(0.7875,9.64377503635122E-17,0.12));
#462=CARTESIAN_POINT('Origin',(0.,0.,0.12));
#463=CARTESIAN_POINT('',(0.7875,9.64377503635122E-17,0.));
#464=CARTESIAN_POINT('Origin',(0.,0.,0.));
#465=CARTESIAN_POINT('Origin',(0.,0.,-0.08));
#466=CARTESIAN_POINT('',(-0.48893593539449,-5.98754053096179E-17,-0.08));
#467=CARTESIAN_POINT('Origin',(0.,0.,-0.08));
#468=CARTESIAN_POINT('',(-0.4375,0.,-0.08));
#469=CARTESIAN_POINT('Origin',(0.,0.,-0.08));
#470=CARTESIAN_POINT('Origin',(0.,0.,0.));
#471=CARTESIAN_POINT('Origin',(0.,0.,0.12));
#472=CARTESIAN_POINT('',(0.5155,6.31284575395435E-17,0.12));
#473=CARTESIAN_POINT('Origin',(0.,0.,0.12));
#474=CARTESIAN_POINT('Origin',(0.,0.,0.02));
#475=CARTESIAN_POINT('',(0.5155,6.31284575395435E-17,0.02));
#476=CARTESIAN_POINT('Origin',(0.,0.,0.02));
#477=CARTESIAN_POINT('',(0.32,3.91874033223161E-17,0.0199999999999999));
#478=CARTESIAN_POINT('Origin',(0.,0.,0.0199999999999999));
#479=CARTESIAN_POINT('Origin',(0.,0.,0.12));
#480=CARTESIAN_POINT('Origin',(0.,0.,2.15634746852988));
#481=CARTESIAN_POINT('',(0.32,-3.91874033223161E-17,-0.0300000000000001));
#482=CARTESIAN_POINT('Origin',(0.,0.,-0.0300000000000001));
#483=CARTESIAN_POINT('Origin',(0.,0.,-1.28));
#484=CARTESIAN_POINT('',(0.342511455818664,-0.105868563006114,-1.28));
#485=CARTESIAN_POINT('Origin',(-3.96497820785017E-17,-4.33218837386933E-18,
-1.28));
#486=CARTESIAN_POINT('',(0.32,-3.91874033223161E-17,-1.28));
#487=CARTESIAN_POINT('Origin',(0.,0.,-1.28));
#488=CARTESIAN_POINT('Origin',(0.,0.,-1.28));
#489=CARTESIAN_POINT('Origin',(0.,0.,-0.78));
#490=CARTESIAN_POINT('',(-0.469,5.74340379942695E-17,-0.78));
#491=CARTESIAN_POINT('Origin',(0.,0.,-0.78));
#492=CARTESIAN_POINT('',(-0.4375,-5.3576527979729E-17,-0.78));
#493=CARTESIAN_POINT('Origin',(0.,0.,-0.78));
#494=CARTESIAN_POINT('Origin',(0.,0.,-0.795));
#495=CARTESIAN_POINT('',(-0.485999999999999,-5.95178344385613E-17,-0.796999999999999));
#496=CARTESIAN_POINT('Origin',(0.,0.,-0.796999999999999));
#497=CARTESIAN_POINT('Origin',(0.,0.,-0.03));
#498=CARTESIAN_POINT('Origin',(-3.21254486701245E-16,-4.37095678986282E-17,
-2.62359674752241));
#499=CARTESIAN_POINT('',(-0.32,-3.13823360342977E-16,-1.535));
#500=CARTESIAN_POINT('Origin',(-2.28722184345088E-16,-4.37095678986282E-17,
-1.535));
#501=CARTESIAN_POINT('',(-0.32,-3.13823360342977E-16,-1.41));
#502=CARTESIAN_POINT('',(0.32,-1.05921216546414E-16,-1.41));
#503=CARTESIAN_POINT('Origin',(-2.1809700305473E-16,-4.37095678986282E-17,
-1.41));
#504=CARTESIAN_POINT('Origin',(-2.1809700305473E-16,-4.37095678986282E-17,
-1.41));
#505=CARTESIAN_POINT('Origin',(-1.66033614731976E-16,-4.37095678986282E-17,
-0.797499999999999));
#506=CARTESIAN_POINT('',(0.5685,2.96926724061181E-16,-0.784999999999999));
#507=CARTESIAN_POINT('Origin',(-1.6497109660294E-16,-4.37095678986282E-17,
-0.784999999999999));
#508=CARTESIAN_POINT('',(0.5935,4.572671065255E-16,-0.809999999999999));
#509=CARTESIAN_POINT('Origin',(-1.67096132861012E-16,-4.37095678986282E-17,
-0.809999999999999));
#510=CARTESIAN_POINT('Origin',(-1.6497109660294E-16,-4.37095678986282E-17,
-0.784999999999999));
#511=CARTESIAN_POINT('',(0.498,3.7665502159289E-16,-0.784999999999999));
#512=CARTESIAN_POINT('Origin',(-1.6497109660294E-16,-4.37095678986282E-17,
-0.784999999999999));
#513=CARTESIAN_POINT('Origin',(-2.28722184345088E-16,-4.37095678986282E-17,
-1.535));
#514=CARTESIAN_POINT('',(0.5685,4.36164466490785E-16,-1.535));
#515=CARTESIAN_POINT('Origin',(-2.28722184345088E-16,-4.37095678986282E-17,
-1.535));
#516=CARTESIAN_POINT('Origin',(-2.28722184345088E-16,-4.37095678986282E-17,
-1.535));
#517=CARTESIAN_POINT('',(0.5935,3.11906332326784E-16,-1.51));
#518=CARTESIAN_POINT('Origin',(-2.26597148087016E-16,-4.37095678986282E-17,
-1.51));
#519=CARTESIAN_POINT('Origin',(-2.27659666216052E-16,-4.37095678986282E-17,
-1.5225));
#520=CARTESIAN_POINT('Origin',(-1.66033614731976E-16,-4.37095678986282E-17,
-0.797499999999999));
#521=CARTESIAN_POINT('Origin',(7.39962729122587E-17,-3.00007271671041E-18,
-1.41));
#522=CARTESIAN_POINT('',(0.32,-1.05736537543145E-16,-1.35292439175035));
#523=CARTESIAN_POINT('Origin',(-2.43819041442745E-17,-2.81668796383994E-18,
-1.35292439175035));
#524=CARTESIAN_POINT('Origin',(-2.67601002711389E-17,-2.92384455848849E-18,
-1.326));
#525=CARTESIAN_POINT('',(0.29856298450023,-0.0922843122438233,-1.326));
#526=CARTESIAN_POINT('Origin',(-2.67601002711389E-17,-2.92384455848849E-18,
-1.326));
#527=CARTESIAN_POINT('Origin',(2.8427186989158E-27,-3.3307824242912E-25,
-1.37375));
#528=CARTESIAN_POINT('',(0.29856298450023,-0.0922843122438233,-1.32775));
#529=CARTESIAN_POINT('Origin',(-2.5779363611883E-17,-2.81668796383994E-18,
-1.32775));
#530=CARTESIAN_POINT('Origin',(-2.5779363611883E-17,-2.81668796383994E-18,
-1.32775));
#531=UNCERTAINTY_MEASURE_WITH_UNIT(LENGTH_MEASURE(0.000393700787401575),
#536,'DISTANCE_ACCURACY_VALUE',
'Maximum model space distance between geometric entities at asserted c
onnectivities');
#532=UNCERTAINTY_MEASURE_WITH_UNIT(LENGTH_MEASURE(0.000393700787401575),
#536,'DISTANCE_ACCURACY_VALUE',
'Maximum model space distance between geometric entities at asserted c
onnectivities');
#533=(
GEOMETRIC_REPRESENTATION_CONTEXT(3)
GLOBAL_UNCERTAINTY_ASSIGNED_CONTEXT((#531))
GLOBAL_UNIT_ASSIGNED_CONTEXT((#536,#541,#540))
REPRESENTATION_CONTEXT('','3D')
);
#534=(
GEOMETRIC_REPRESENTATION_CONTEXT(3)
GLOBAL_UNCERTAINTY_ASSIGNED_CONTEXT((#532))
GLOBAL_UNIT_ASSIGNED_CONTEXT((#536,#541,#540))
REPRESENTATION_CONTEXT('','3D')
);
#535=DIMENSIONAL_EXPONENTS(1.,0.,0.,0.,0.,0.,0.);
#536=(
CONVERSION_BASED_UNIT('inch',#539)
LENGTH_UNIT()
NAMED_UNIT(#535)
);
#537=(
LENGTH_UNIT()
NAMED_UNIT(*)
SI_UNIT(.MILLI.,.METRE.)
);
#538=(
LENGTH_UNIT()
NAMED_UNIT(*)
SI_UNIT(.CENTI.,.METRE.)
);
#539=LENGTH_MEASURE_WITH_UNIT(LENGTH_MEASURE(25.4),#537);
#540=(
NAMED_UNIT(*)
SI_UNIT($,.STERADIAN.)
SOLID_ANGLE_UNIT()
);
#541=(
NAMED_UNIT(*)
PLANE_ANGLE_UNIT()
SI_UNIT($,.RADIAN.)
);
#542=SHAPE_DEFINITION_REPRESENTATION(#543,#544);
#543=PRODUCT_DEFINITION_SHAPE('',$,#546);
#544=SHAPE_REPRESENTATION('',(#315),#533);
#545=PRODUCT_DEFINITION_CONTEXT('part definition',#550,'design');
#546=PRODUCT_DEFINITION('1000006_Shrinkwrap_1','1000006_Shrinkwrap_1',#547,
#545);
#547=PRODUCT_DEFINITION_FORMATION('',$,#552);
#548=PRODUCT_RELATED_PRODUCT_CATEGORY('1000006_Shrinkwrap_1',
'1000006_Shrinkwrap_1',(#552));
#549=APPLICATION_PROTOCOL_DEFINITION('international standard',
'automotive_design',2009,#550);
#550=APPLICATION_CONTEXT(
'Core Data for Automotive Mechanical Design Process');
#551=PRODUCT_CONTEXT('part definition',#550,'mechanical');
#552=PRODUCT('1000006_Shrinkwrap_1','1000006_Shrinkwrap_1',$,(#551));
#553=PRESENTATION_STYLE_ASSIGNMENT((#558));
#554=PRESENTATION_STYLE_ASSIGNMENT((#559));
#555=PRESENTATION_STYLE_ASSIGNMENT((#560));
#556=PRESENTATION_STYLE_ASSIGNMENT((#561));
#557=PRESENTATION_STYLE_ASSIGNMENT((#562));
#558=SURFACE_STYLE_USAGE(.BOTH.,#563);
#559=SURFACE_STYLE_USAGE(.BOTH.,#564);
#560=SURFACE_STYLE_USAGE(.BOTH.,#565);
#561=SURFACE_STYLE_USAGE(.BOTH.,#566);
#562=SURFACE_STYLE_USAGE(.BOTH.,#567);
#563=SURFACE_SIDE_STYLE('',(#568));
#564=SURFACE_SIDE_STYLE('',(#569));
#565=SURFACE_SIDE_STYLE('',(#570));
#566=SURFACE_SIDE_STYLE('',(#571));
#567=SURFACE_SIDE_STYLE('',(#572));
#568=SURFACE_STYLE_FILL_AREA(#573);
#569=SURFACE_STYLE_FILL_AREA(#574);
#570=SURFACE_STYLE_FILL_AREA(#575);
#571=SURFACE_STYLE_FILL_AREA(#576);
#572=SURFACE_STYLE_FILL_AREA(#577);
#573=FILL_AREA_STYLE('',(#578));
#574=FILL_AREA_STYLE('',(#579));
#575=FILL_AREA_STYLE('',(#580));
#576=FILL_AREA_STYLE('',(#581));
#577=FILL_AREA_STYLE('',(#582));
#578=FILL_AREA_STYLE_COLOUR('',#583);
#579=FILL_AREA_STYLE_COLOUR('',#584);
#580=FILL_AREA_STYLE_COLOUR('',#585);
#581=FILL_AREA_STYLE_COLOUR('',#586);
#582=FILL_AREA_STYLE_COLOUR('',#587);
#583=COLOUR_RGB('',0.752941176470588,0.752941176470588,0.752941176470588);
#584=COLOUR_RGB('',0.745098039215686,0.737254901960784,0.729411764705882);
#585=COLOUR_RGB('',0.87843137254902,0.874509803921569,0.858823529411765);
#586=COLOUR_RGB('',0.482352941176471,0.482352941176471,0.482352941176471);
#587=COLOUR_RGB('',0.250980392156863,0.250980392156863,0.250980392156863);
ENDSEC;
END-ISO-10303-21;
