ISO-10303-21;
HEADER;
/* Generated by software containing ST-Developer
 * from STEP Tools, Inc. (www.steptools.com) 
 */

FILE_DESCRIPTION(
/* description */ (''),
/* implementation_level */ '2;1');

FILE_NAME(
/* name */ 'G:\\drawings\\part models\\1000003a.stp',
/* time_stamp */ '2019-07-18T08:53:59-04:00',
/* author */ ('Glen_C'),
/* organization */ (''),
/* preprocessor_version */ 'ST-DEVELOPER v16.13',
/* originating_system */ 'Autodesk Inventor 2018',
/* authorisation */ '');

FILE_SCHEMA (('AUTOMOTIVE_DESIGN { 1 0 10303 214 3 1 1 }'));
ENDSEC;

DATA;
#10=MECHANICAL_DESIGN_GEOMETRIC_PRESENTATION_REPRESENTATION('',(#270,#271,
#269,#279,#275,#282,#272,#278,#274,#276,#273,#277,#290,#284,#280,#288,#285,
#291,#292,#281,#289,#286,#283,#287,#294,#293),#576);
#11=SHAPE_REPRESENTATION_RELATIONSHIP('SRR','None',#586,#12);
#12=ADVANCED_BREP_SHAPE_REPRESENTATION('',(#13),#575);
#13=MANIFOLD_SOLID_BREP('Solid1',#320);
#14=TOROIDAL_SURFACE('',#375,0.281,0.031);
#15=TOROIDAL_SURFACE('',#379,0.281,0.031);
#16=CONICAL_SURFACE('',#354,0.359,0.785398163397448);
#17=CONICAL_SURFACE('',#370,0.59,1.30899693899575);
#18=CONICAL_SURFACE('',#383,0.4225,0.785398163397449);
#19=CONICAL_SURFACE('',#389,0.4225,0.785398163397448);
#20=PLANE('',#352);
#21=PLANE('',#356);
#22=PLANE('',#360);
#23=PLANE('',#369);
#24=PLANE('',#374);
#25=PLANE('',#388);
#26=FACE_BOUND('',#77,.T.);
#27=FACE_BOUND('',#79,.T.);
#28=FACE_BOUND('',#81,.T.);
#29=FACE_BOUND('',#83,.T.);
#30=FACE_BOUND('',#85,.T.);
#31=FACE_BOUND('',#87,.T.);
#32=FACE_BOUND('',#89,.T.);
#33=FACE_BOUND('',#91,.T.);
#34=FACE_BOUND('',#93,.T.);
#35=FACE_BOUND('',#95,.T.);
#36=FACE_BOUND('',#97,.T.);
#37=FACE_BOUND('',#99,.T.);
#38=FACE_BOUND('',#101,.T.);
#39=FACE_BOUND('',#103,.T.);
#40=FACE_BOUND('',#105,.T.);
#41=FACE_BOUND('',#107,.T.);
#42=FACE_BOUND('',#109,.T.);
#43=FACE_BOUND('',#111,.T.);
#44=FACE_BOUND('',#113,.T.);
#45=FACE_BOUND('',#115,.T.);
#46=FACE_BOUND('',#117,.T.);
#47=FACE_BOUND('',#119,.T.);
#48=FACE_BOUND('',#121,.T.);
#49=FACE_BOUND('',#123,.T.);
#50=FACE_BOUND('',#125,.T.);
#51=FACE_OUTER_BOUND('',#76,.T.);
#52=FACE_OUTER_BOUND('',#78,.T.);
#53=FACE_OUTER_BOUND('',#80,.T.);
#54=FACE_OUTER_BOUND('',#82,.T.);
#55=FACE_OUTER_BOUND('',#84,.T.);
#56=FACE_OUTER_BOUND('',#86,.T.);
#57=FACE_OUTER_BOUND('',#88,.T.);
#58=FACE_OUTER_BOUND('',#90,.T.);
#59=FACE_OUTER_BOUND('',#92,.T.);
#60=FACE_OUTER_BOUND('',#94,.T.);
#61=FACE_OUTER_BOUND('',#96,.T.);
#62=FACE_OUTER_BOUND('',#98,.T.);
#63=FACE_OUTER_BOUND('',#100,.T.);
#64=FACE_OUTER_BOUND('',#102,.T.);
#65=FACE_OUTER_BOUND('',#104,.T.);
#66=FACE_OUTER_BOUND('',#106,.T.);
#67=FACE_OUTER_BOUND('',#108,.T.);
#68=FACE_OUTER_BOUND('',#110,.T.);
#69=FACE_OUTER_BOUND('',#112,.T.);
#70=FACE_OUTER_BOUND('',#114,.T.);
#71=FACE_OUTER_BOUND('',#116,.T.);
#72=FACE_OUTER_BOUND('',#118,.T.);
#73=FACE_OUTER_BOUND('',#120,.T.);
#74=FACE_OUTER_BOUND('',#122,.T.);
#75=FACE_OUTER_BOUND('',#124,.T.);
#76=EDGE_LOOP('',(#204));
#77=EDGE_LOOP('',(#205));
#78=EDGE_LOOP('',(#206));
#79=EDGE_LOOP('',(#207));
#80=EDGE_LOOP('',(#208));
#81=EDGE_LOOP('',(#209));
#82=EDGE_LOOP('',(#210));
#83=EDGE_LOOP('',(#211));
#84=EDGE_LOOP('',(#212));
#85=EDGE_LOOP('',(#213));
#86=EDGE_LOOP('',(#214));
#87=EDGE_LOOP('',(#215));
#88=EDGE_LOOP('',(#216));
#89=EDGE_LOOP('',(#217));
#90=EDGE_LOOP('',(#218));
#91=EDGE_LOOP('',(#219));
#92=EDGE_LOOP('',(#220));
#93=EDGE_LOOP('',(#221));
#94=EDGE_LOOP('',(#222));
#95=EDGE_LOOP('',(#223));
#96=EDGE_LOOP('',(#224));
#97=EDGE_LOOP('',(#225));
#98=EDGE_LOOP('',(#226));
#99=EDGE_LOOP('',(#227));
#100=EDGE_LOOP('',(#228));
#101=EDGE_LOOP('',(#229));
#102=EDGE_LOOP('',(#230));
#103=EDGE_LOOP('',(#231));
#104=EDGE_LOOP('',(#232));
#105=EDGE_LOOP('',(#233));
#106=EDGE_LOOP('',(#234));
#107=EDGE_LOOP('',(#235));
#108=EDGE_LOOP('',(#236));
#109=EDGE_LOOP('',(#237));
#110=EDGE_LOOP('',(#238));
#111=EDGE_LOOP('',(#239));
#112=EDGE_LOOP('',(#240));
#113=EDGE_LOOP('',(#241));
#114=EDGE_LOOP('',(#242));
#115=EDGE_LOOP('',(#243,#244));
#116=EDGE_LOOP('',(#245));
#117=EDGE_LOOP('',(#246));
#118=EDGE_LOOP('',(#247));
#119=EDGE_LOOP('',(#248));
#120=EDGE_LOOP('',(#249));
#121=EDGE_LOOP('',(#250));
#122=EDGE_LOOP('',(#251));
#123=EDGE_LOOP('',(#252));
#124=EDGE_LOOP('',(#253));
#125=EDGE_LOOP('',(#254,#255));
#126=CIRCLE('',#341,0.374);
#127=CIRCLE('',#342,0.374);
#128=CIRCLE('',#344,0.2575);
#129=CIRCLE('',#345,0.2575);
#130=CIRCLE('',#347,0.2575);
#131=CIRCLE('',#348,0.2575);
#132=CIRCLE('',#350,0.2575);
#133=CIRCLE('',#351,0.2575);
#134=CIRCLE('',#353,0.3125);
#135=CIRCLE('',#355,0.344);
#136=CIRCLE('',#357,0.335);
#137=CIRCLE('',#359,0.335);
#138=CIRCLE('',#362,0.425);
#139=CIRCLE('',#363,0.425);
#140=CIRCLE('',#365,0.3125);
#141=CIRCLE('',#367,0.3385);
#142=CIRCLE('',#368,0.3385);
#143=CIRCLE('',#371,0.59);
#144=CIRCLE('',#373,0.59);
#145=CIRCLE('',#376,0.25);
#146=CIRCLE('',#378,0.25);
#147=CIRCLE('',#381,0.2575);
#148=CIRCLE('',#382,0.2575);
#149=CIRCLE('',#384,0.4375);
#150=CIRCLE('',#385,0.4075);
#151=CIRCLE('',#387,0.4375);
#152=VERTEX_POINT('',#497);
#153=VERTEX_POINT('',#499);
#154=VERTEX_POINT('',#502);
#155=VERTEX_POINT('',#504);
#156=VERTEX_POINT('',#507);
#157=VERTEX_POINT('',#509);
#158=VERTEX_POINT('',#512);
#159=VERTEX_POINT('',#514);
#160=VERTEX_POINT('',#517);
#161=VERTEX_POINT('',#520);
#162=VERTEX_POINT('',#523);
#163=VERTEX_POINT('',#526);
#164=VERTEX_POINT('',#530);
#165=VERTEX_POINT('',#532);
#166=VERTEX_POINT('',#535);
#167=VERTEX_POINT('',#538);
#168=VERTEX_POINT('',#540);
#169=VERTEX_POINT('',#544);
#170=VERTEX_POINT('',#547);
#171=VERTEX_POINT('',#551);
#172=VERTEX_POINT('',#554);
#173=VERTEX_POINT('',#558);
#174=VERTEX_POINT('',#559);
#175=VERTEX_POINT('',#563);
#176=VERTEX_POINT('',#565);
#177=VERTEX_POINT('',#568);
#178=EDGE_CURVE('',#152,#152,#126,.T.);
#179=EDGE_CURVE('',#153,#153,#127,.T.);
#180=EDGE_CURVE('',#154,#154,#128,.T.);
#181=EDGE_CURVE('',#155,#155,#129,.T.);
#182=EDGE_CURVE('',#156,#156,#130,.T.);
#183=EDGE_CURVE('',#157,#157,#131,.T.);
#184=EDGE_CURVE('',#158,#158,#132,.T.);
#185=EDGE_CURVE('',#159,#159,#133,.T.);
#186=EDGE_CURVE('',#160,#160,#134,.T.);
#187=EDGE_CURVE('',#161,#161,#135,.T.);
#188=EDGE_CURVE('',#162,#162,#136,.T.);
#189=EDGE_CURVE('',#163,#163,#137,.T.);
#190=EDGE_CURVE('',#164,#164,#138,.T.);
#191=EDGE_CURVE('',#165,#165,#139,.T.);
#192=EDGE_CURVE('',#166,#166,#140,.T.);
#193=EDGE_CURVE('',#167,#167,#141,.T.);
#194=EDGE_CURVE('',#168,#168,#142,.T.);
#195=EDGE_CURVE('',#169,#169,#143,.T.);
#196=EDGE_CURVE('',#170,#170,#144,.T.);
#197=EDGE_CURVE('',#171,#171,#145,.T.);
#198=EDGE_CURVE('',#172,#172,#146,.T.);
#199=EDGE_CURVE('',#173,#174,#147,.T.);
#200=EDGE_CURVE('',#174,#173,#148,.T.);
#201=EDGE_CURVE('',#175,#175,#149,.T.);
#202=EDGE_CURVE('',#176,#176,#150,.T.);
#203=EDGE_CURVE('',#177,#177,#151,.T.);
#204=ORIENTED_EDGE('',*,*,#178,.F.);
#205=ORIENTED_EDGE('',*,*,#179,.F.);
#206=ORIENTED_EDGE('',*,*,#180,.T.);
#207=ORIENTED_EDGE('',*,*,#181,.F.);
#208=ORIENTED_EDGE('',*,*,#182,.F.);
#209=ORIENTED_EDGE('',*,*,#183,.F.);
#210=ORIENTED_EDGE('',*,*,#184,.F.);
#211=ORIENTED_EDGE('',*,*,#185,.F.);
#212=ORIENTED_EDGE('',*,*,#186,.F.);
#213=ORIENTED_EDGE('',*,*,#184,.T.);
#214=ORIENTED_EDGE('',*,*,#187,.T.);
#215=ORIENTED_EDGE('',*,*,#178,.T.);
#216=ORIENTED_EDGE('',*,*,#187,.F.);
#217=ORIENTED_EDGE('',*,*,#188,.T.);
#218=ORIENTED_EDGE('',*,*,#189,.T.);
#219=ORIENTED_EDGE('',*,*,#188,.F.);
#220=ORIENTED_EDGE('',*,*,#189,.F.);
#221=ORIENTED_EDGE('',*,*,#181,.T.);
#222=ORIENTED_EDGE('',*,*,#190,.F.);
#223=ORIENTED_EDGE('',*,*,#191,.F.);
#224=ORIENTED_EDGE('',*,*,#192,.F.);
#225=ORIENTED_EDGE('',*,*,#186,.T.);
#226=ORIENTED_EDGE('',*,*,#193,.F.);
#227=ORIENTED_EDGE('',*,*,#194,.F.);
#228=ORIENTED_EDGE('',*,*,#193,.T.);
#229=ORIENTED_EDGE('',*,*,#192,.T.);
#230=ORIENTED_EDGE('',*,*,#190,.T.);
#231=ORIENTED_EDGE('',*,*,#195,.F.);
#232=ORIENTED_EDGE('',*,*,#195,.T.);
#233=ORIENTED_EDGE('',*,*,#196,.T.);
#234=ORIENTED_EDGE('',*,*,#196,.F.);
#235=ORIENTED_EDGE('',*,*,#194,.T.);
#236=ORIENTED_EDGE('',*,*,#197,.T.);
#237=ORIENTED_EDGE('',*,*,#185,.T.);
#238=ORIENTED_EDGE('',*,*,#198,.F.);
#239=ORIENTED_EDGE('',*,*,#197,.F.);
#240=ORIENTED_EDGE('',*,*,#198,.T.);
#241=ORIENTED_EDGE('',*,*,#182,.T.);
#242=ORIENTED_EDGE('',*,*,#183,.T.);
#243=ORIENTED_EDGE('',*,*,#199,.F.);
#244=ORIENTED_EDGE('',*,*,#200,.F.);
#245=ORIENTED_EDGE('',*,*,#201,.T.);
#246=ORIENTED_EDGE('',*,*,#202,.T.);
#247=ORIENTED_EDGE('',*,*,#203,.F.);
#248=ORIENTED_EDGE('',*,*,#201,.F.);
#249=ORIENTED_EDGE('',*,*,#202,.F.);
#250=ORIENTED_EDGE('',*,*,#179,.T.);
#251=ORIENTED_EDGE('',*,*,#191,.T.);
#252=ORIENTED_EDGE('',*,*,#203,.T.);
#253=ORIENTED_EDGE('',*,*,#180,.F.);
#254=ORIENTED_EDGE('',*,*,#200,.T.);
#255=ORIENTED_EDGE('',*,*,#199,.T.);
#256=CYLINDRICAL_SURFACE('',#340,0.374);
#257=CYLINDRICAL_SURFACE('',#343,0.2575);
#258=CYLINDRICAL_SURFACE('',#346,0.2575);
#259=CYLINDRICAL_SURFACE('',#349,0.2575);
#260=CYLINDRICAL_SURFACE('',#358,0.335);
#261=CYLINDRICAL_SURFACE('',#361,0.425);
#262=CYLINDRICAL_SURFACE('',#364,0.3125);
#263=CYLINDRICAL_SURFACE('',#366,0.3385);
#264=CYLINDRICAL_SURFACE('',#372,0.59);
#265=CYLINDRICAL_SURFACE('',#377,0.25);
#266=CYLINDRICAL_SURFACE('',#380,0.2575);
#267=CYLINDRICAL_SURFACE('',#386,0.4375);
#268=CYLINDRICAL_SURFACE('',#390,0.2575);
#269=STYLED_ITEM('',(#596),#295);
#270=STYLED_ITEM('',(#596),#296);
#271=STYLED_ITEM('',(#596),#297);
#272=STYLED_ITEM('',(#596),#298);
#273=STYLED_ITEM('',(#596),#299);
#274=STYLED_ITEM('',(#596),#300);
#275=STYLED_ITEM('',(#596),#301);
#276=STYLED_ITEM('',(#596),#302);
#277=STYLED_ITEM('',(#596),#303);
#278=STYLED_ITEM('',(#597),#304);
#279=STYLED_ITEM('',(#597),#305);
#280=STYLED_ITEM('',(#597),#306);
#281=STYLED_ITEM('',(#597),#307);
#282=STYLED_ITEM('',(#597),#308);
#283=STYLED_ITEM('',(#597),#309);
#284=STYLED_ITEM('',(#597),#310);
#285=STYLED_ITEM('',(#598),#311);
#286=STYLED_ITEM('',(#598),#312);
#287=STYLED_ITEM('',(#598),#313);
#288=STYLED_ITEM('',(#599),#314);
#289=STYLED_ITEM('',(#600),#315);
#290=STYLED_ITEM('',(#601),#316);
#291=STYLED_ITEM('',(#600),#317);
#292=STYLED_ITEM('',(#600),#318);
#293=STYLED_ITEM('',(#596),#319);
#294=STYLED_ITEM('',(#595),#13);
#295=ADVANCED_FACE('',(#51,#26),#256,.T.);
#296=ADVANCED_FACE('',(#52,#27),#257,.F.);
#297=ADVANCED_FACE('',(#53,#28),#258,.F.);
#298=ADVANCED_FACE('',(#54,#29),#259,.F.);
#299=ADVANCED_FACE('',(#55,#30),#20,.T.);
#300=ADVANCED_FACE('',(#56,#31),#16,.T.);
#301=ADVANCED_FACE('',(#57,#32),#21,.F.);
#302=ADVANCED_FACE('',(#58,#33),#260,.T.);
#303=ADVANCED_FACE('',(#59,#34),#22,.F.);
#304=ADVANCED_FACE('',(#60,#35),#261,.T.);
#305=ADVANCED_FACE('',(#61,#36),#262,.F.);
#306=ADVANCED_FACE('',(#62,#37),#263,.F.);
#307=ADVANCED_FACE('',(#63,#38),#23,.F.);
#308=ADVANCED_FACE('',(#64,#39),#17,.T.);
#309=ADVANCED_FACE('',(#65,#40),#264,.T.);
#310=ADVANCED_FACE('',(#66,#41),#24,.F.);
#311=ADVANCED_FACE('',(#67,#42),#14,.T.);
#312=ADVANCED_FACE('',(#68,#43),#265,.F.);
#313=ADVANCED_FACE('',(#69,#44),#15,.T.);
#314=ADVANCED_FACE('',(#70,#45),#266,.F.);
#315=ADVANCED_FACE('',(#71,#46),#18,.T.);
#316=ADVANCED_FACE('',(#72,#47),#267,.T.);
#317=ADVANCED_FACE('',(#73,#48),#25,.T.);
#318=ADVANCED_FACE('',(#74,#49),#19,.T.);
#319=ADVANCED_FACE('',(#75,#50),#268,.F.);
#320=CLOSED_SHELL('',(#295,#296,#297,#298,#299,#300,#301,#302,#303,#304,
#305,#306,#307,#308,#309,#310,#311,#312,#313,#314,#315,#316,#317,#318,#319));
#321=DERIVED_UNIT_ELEMENT(#323,0.);
#322=DERIVED_UNIT_ELEMENT(#580,0.);
#323=(
MASS_UNIT()
NAMED_UNIT(*)
SI_UNIT($,.GRAM.)
);
#324=DERIVED_UNIT((#321,#322));
#325=MEASURE_REPRESENTATION_ITEM('density measure',
POSITIVE_RATIO_MEASURE(1.),#324);
#326=PROPERTY_DEFINITION_REPRESENTATION(#331,#328);
#327=PROPERTY_DEFINITION_REPRESENTATION(#332,#329);
#328=REPRESENTATION('material name',(#330),#575);
#329=REPRESENTATION('density',(#325),#575);
#330=DESCRIPTIVE_REPRESENTATION_ITEM('Generic','Generic');
#331=PROPERTY_DEFINITION('material property','material name',#588);
#332=PROPERTY_DEFINITION('material property','density of part',#588);
#333=DATE_TIME_ROLE('creation_date');
#334=APPLIED_DATE_AND_TIME_ASSIGNMENT(#335,#333,(#588));
#335=DATE_AND_TIME(#336,#337);
#336=CALENDAR_DATE(2019,18,7);
#337=LOCAL_TIME(12,53,28.,#338);
#338=COORDINATED_UNIVERSAL_TIME_OFFSET(0,0,.BEHIND.);
#339=AXIS2_PLACEMENT_3D('placement',#495,#391,#392);
#340=AXIS2_PLACEMENT_3D('',#496,#393,#394);
#341=AXIS2_PLACEMENT_3D('',#498,#395,#396);
#342=AXIS2_PLACEMENT_3D('',#500,#397,#398);
#343=AXIS2_PLACEMENT_3D('',#501,#399,#400);
#344=AXIS2_PLACEMENT_3D('',#503,#401,#402);
#345=AXIS2_PLACEMENT_3D('',#505,#403,#404);
#346=AXIS2_PLACEMENT_3D('',#506,#405,#406);
#347=AXIS2_PLACEMENT_3D('',#508,#407,#408);
#348=AXIS2_PLACEMENT_3D('',#510,#409,#410);
#349=AXIS2_PLACEMENT_3D('',#511,#411,#412);
#350=AXIS2_PLACEMENT_3D('',#513,#413,#414);
#351=AXIS2_PLACEMENT_3D('',#515,#415,#416);
#352=AXIS2_PLACEMENT_3D('',#516,#417,#418);
#353=AXIS2_PLACEMENT_3D('',#518,#419,#420);
#354=AXIS2_PLACEMENT_3D('',#519,#421,#422);
#355=AXIS2_PLACEMENT_3D('',#521,#423,#424);
#356=AXIS2_PLACEMENT_3D('',#522,#425,#426);
#357=AXIS2_PLACEMENT_3D('',#524,#427,#428);
#358=AXIS2_PLACEMENT_3D('',#525,#429,#430);
#359=AXIS2_PLACEMENT_3D('',#527,#431,#432);
#360=AXIS2_PLACEMENT_3D('',#528,#433,#434);
#361=AXIS2_PLACEMENT_3D('',#529,#435,#436);
#362=AXIS2_PLACEMENT_3D('',#531,#437,#438);
#363=AXIS2_PLACEMENT_3D('',#533,#439,#440);
#364=AXIS2_PLACEMENT_3D('',#534,#441,#442);
#365=AXIS2_PLACEMENT_3D('',#536,#443,#444);
#366=AXIS2_PLACEMENT_3D('',#537,#445,#446);
#367=AXIS2_PLACEMENT_3D('',#539,#447,#448);
#368=AXIS2_PLACEMENT_3D('',#541,#449,#450);
#369=AXIS2_PLACEMENT_3D('',#542,#451,#452);
#370=AXIS2_PLACEMENT_3D('',#543,#453,#454);
#371=AXIS2_PLACEMENT_3D('',#545,#455,#456);
#372=AXIS2_PLACEMENT_3D('',#546,#457,#458);
#373=AXIS2_PLACEMENT_3D('',#548,#459,#460);
#374=AXIS2_PLACEMENT_3D('',#549,#461,#462);
#375=AXIS2_PLACEMENT_3D('',#550,#463,#464);
#376=AXIS2_PLACEMENT_3D('',#552,#465,#466);
#377=AXIS2_PLACEMENT_3D('',#553,#467,#468);
#378=AXIS2_PLACEMENT_3D('',#555,#469,#470);
#379=AXIS2_PLACEMENT_3D('',#556,#471,#472);
#380=AXIS2_PLACEMENT_3D('',#557,#473,#474);
#381=AXIS2_PLACEMENT_3D('',#560,#475,#476);
#382=AXIS2_PLACEMENT_3D('',#561,#477,#478);
#383=AXIS2_PLACEMENT_3D('',#562,#479,#480);
#384=AXIS2_PLACEMENT_3D('',#564,#481,#482);
#385=AXIS2_PLACEMENT_3D('',#566,#483,#484);
#386=AXIS2_PLACEMENT_3D('',#567,#485,#486);
#387=AXIS2_PLACEMENT_3D('',#569,#487,#488);
#388=AXIS2_PLACEMENT_3D('',#570,#489,#490);
#389=AXIS2_PLACEMENT_3D('',#571,#491,#492);
#390=AXIS2_PLACEMENT_3D('',#572,#493,#494);
#391=DIRECTION('axis',(0.,0.,1.));
#392=DIRECTION('refdir',(1.,0.,0.));
#393=DIRECTION('center_axis',(0.,0.,-1.));
#394=DIRECTION('ref_axis',(-1.,0.,0.));
#395=DIRECTION('center_axis',(0.,0.,-1.));
#396=DIRECTION('ref_axis',(-1.,0.,0.));
#397=DIRECTION('center_axis',(-4.44089209850063E-16,0.,1.));
#398=DIRECTION('ref_axis',(-1.,0.,0.));
#399=DIRECTION('center_axis',(0.,0.,-1.));
#400=DIRECTION('ref_axis',(1.,0.,0.));
#401=DIRECTION('center_axis',(-4.44089209850063E-16,0.,1.));
#402=DIRECTION('ref_axis',(1.,-7.77156117237609E-16,4.44089209850063E-16));
#403=DIRECTION('center_axis',(0.,0.,1.));
#404=DIRECTION('ref_axis',(1.,0.,0.));
#405=DIRECTION('center_axis',(0.,0.,-1.));
#406=DIRECTION('ref_axis',(1.,0.,0.));
#407=DIRECTION('center_axis',(0.,0.,-1.));
#408=DIRECTION('ref_axis',(1.,0.,0.));
#409=DIRECTION('center_axis',(-4.44089209850063E-16,-4.86173068582902E-62,
1.));
#410=DIRECTION('ref_axis',(-1.,4.92643991364194E-47,-4.44089209850063E-16));
#411=DIRECTION('center_axis',(0.,0.,-1.));
#412=DIRECTION('ref_axis',(1.,0.,0.));
#413=DIRECTION('center_axis',(0.,0.,-1.));
#414=DIRECTION('ref_axis',(1.,0.,0.));
#415=DIRECTION('center_axis',(0.,0.,1.));
#416=DIRECTION('ref_axis',(1.,0.,0.));
#417=DIRECTION('center_axis',(0.,0.,1.));
#418=DIRECTION('ref_axis',(-1.,0.,0.));
#419=DIRECTION('center_axis',(0.,0.,-1.));
#420=DIRECTION('ref_axis',(-1.,0.,0.));
#421=DIRECTION('center_axis',(0.,0.,1.));
#422=DIRECTION('ref_axis',(-1.,0.,0.));
#423=DIRECTION('center_axis',(0.,0.,1.));
#424=DIRECTION('ref_axis',(-1.,0.,0.));
#425=DIRECTION('center_axis',(0.,0.,1.));
#426=DIRECTION('ref_axis',(-1.,0.,0.));
#427=DIRECTION('center_axis',(0.,0.,1.));
#428=DIRECTION('ref_axis',(-1.,0.,0.));
#429=DIRECTION('center_axis',(0.,0.,-1.));
#430=DIRECTION('ref_axis',(-1.,0.,0.));
#431=DIRECTION('center_axis',(0.,0.,1.));
#432=DIRECTION('ref_axis',(-1.,0.,0.));
#433=DIRECTION('center_axis',(0.,0.,1.));
#434=DIRECTION('ref_axis',(-1.,0.,0.));
#435=DIRECTION('center_axis',(0.,0.,-1.));
#436=DIRECTION('ref_axis',(-1.,0.,0.));
#437=DIRECTION('center_axis',(0.,0.,1.));
#438=DIRECTION('ref_axis',(-1.,0.,0.));
#439=DIRECTION('center_axis',(0.,0.,-1.));
#440=DIRECTION('ref_axis',(-1.,0.,0.));
#441=DIRECTION('center_axis',(0.,0.,-1.));
#442=DIRECTION('ref_axis',(-1.,0.,0.));
#443=DIRECTION('center_axis',(0.,0.,-1.));
#444=DIRECTION('ref_axis',(-1.,0.,0.));
#445=DIRECTION('center_axis',(0.,0.,-1.));
#446=DIRECTION('ref_axis',(-1.,0.,0.));
#447=DIRECTION('center_axis',(0.,0.,1.));
#448=DIRECTION('ref_axis',(-1.,0.,0.));
#449=DIRECTION('center_axis',(0.,0.,-1.));
#450=DIRECTION('ref_axis',(-1.,0.,0.));
#451=DIRECTION('center_axis',(0.,0.,-1.));
#452=DIRECTION('ref_axis',(-1.,0.,0.));
#453=DIRECTION('center_axis',(0.,0.,1.));
#454=DIRECTION('ref_axis',(1.,0.,0.));
#455=DIRECTION('center_axis',(0.,0.,1.));
#456=DIRECTION('ref_axis',(-1.,0.,0.));
#457=DIRECTION('center_axis',(0.,0.,-1.));
#458=DIRECTION('ref_axis',(-1.,0.,0.));
#459=DIRECTION('center_axis',(0.,0.,-1.));
#460=DIRECTION('ref_axis',(-1.,0.,0.));
#461=DIRECTION('center_axis',(0.,0.,-1.));
#462=DIRECTION('ref_axis',(-1.,0.,0.));
#463=DIRECTION('center_axis',(4.44089209850063E-16,8.89496095518677E-48,
-1.));
#464=DIRECTION('ref_axis',(0.,1.,0.));
#465=DIRECTION('center_axis',(4.44089209850063E-16,8.89496095518677E-48,
-1.));
#466=DIRECTION('ref_axis',(-4.42569591535196E-47,-1.,-8.89496095518679E-48));
#467=DIRECTION('center_axis',(4.44089209850063E-16,8.89496095518677E-48,
-1.));
#468=DIRECTION('ref_axis',(-4.42569591535196E-47,-1.,-8.89496095518679E-48));
#469=DIRECTION('center_axis',(-4.44089209850063E-16,-8.89496095518677E-48,
1.));
#470=DIRECTION('ref_axis',(-4.42569591535196E-47,-1.,-8.89496095518679E-48));
#471=DIRECTION('center_axis',(-4.44089209850063E-16,-8.89496095518677E-48,
1.));
#472=DIRECTION('ref_axis',(0.,-1.,0.));
#473=DIRECTION('center_axis',(-4.44089209850063E-16,-4.86173068582902E-62,
1.));
#474=DIRECTION('ref_axis',(-1.,4.92643991364194E-47,-4.44089209850063E-16));
#475=DIRECTION('center_axis',(-4.44089209850063E-16,0.,1.));
#476=DIRECTION('ref_axis',(1.,-7.77156117237609E-16,4.44089209850063E-16));
#477=DIRECTION('center_axis',(-4.44089209850063E-16,0.,1.));
#478=DIRECTION('ref_axis',(1.,-7.77156117237609E-16,4.44089209850063E-16));
#479=DIRECTION('center_axis',(-4.44089209850063E-16,0.,1.));
#480=DIRECTION('ref_axis',(-1.,7.77156117237609E-16,-4.44089209850063E-16));
#481=DIRECTION('center_axis',(4.44089209850063E-16,0.,-1.));
#482=DIRECTION('ref_axis',(-1.,7.77156117237609E-16,-4.44089209850063E-16));
#483=DIRECTION('center_axis',(-4.44089209850063E-16,0.,1.));
#484=DIRECTION('ref_axis',(-1.,7.77156117237609E-16,-4.44089209850063E-16));
#485=DIRECTION('center_axis',(-4.44089209850063E-16,0.,1.));
#486=DIRECTION('ref_axis',(-1.,7.77156117237609E-16,-4.44089209850063E-16));
#487=DIRECTION('center_axis',(-4.44089209850063E-16,0.,1.));
#488=DIRECTION('ref_axis',(-1.,7.77156117237609E-16,-4.44089209850063E-16));
#489=DIRECTION('center_axis',(4.44089209850063E-16,0.,-1.));
#490=DIRECTION('ref_axis',(-1.,7.77156117237609E-16,-4.44089209850063E-16));
#491=DIRECTION('center_axis',(4.44089209850063E-16,0.,-1.));
#492=DIRECTION('ref_axis',(-1.,7.77156117237609E-16,-4.44089209850063E-16));
#493=DIRECTION('center_axis',(-4.44089209850063E-16,0.,1.));
#494=DIRECTION('ref_axis',(1.,-7.77156117237609E-16,4.44089209850063E-16));
#495=CARTESIAN_POINT('',(0.,0.,0.));
#496=CARTESIAN_POINT('Origin',(0.,0.,-0.17));
#497=CARTESIAN_POINT('',(0.374,-4.5801790288111E-17,-1.077));
#498=CARTESIAN_POINT('Origin',(0.,0.,-1.077));
#499=CARTESIAN_POINT('',(0.374,4.5801790288111E-17,-0.773));
#500=CARTESIAN_POINT('Origin',(0.,0.,-0.773));
#501=CARTESIAN_POINT('Origin',(0.,0.,0.2669502993762));
#502=CARTESIAN_POINT('',(-0.2575,1.31270076185282E-16,-0.773));
#503=CARTESIAN_POINT('Origin',(2.86587388774886E-16,-3.73140103924758E-17,
-0.773));
#504=CARTESIAN_POINT('',(0.2575,0.,-1.232));
#505=CARTESIAN_POINT('Origin',(0.,0.,-1.232));
#506=CARTESIAN_POINT('Origin',(0.,0.,0.2669502993762));
#507=CARTESIAN_POINT('',(-0.2575,3.15346550780443E-17,-0.552217566619156));
#508=CARTESIAN_POINT('Origin',(2.36255459640234E-16,4.59473491298237E-48,
-0.552217566619156));
#509=CARTESIAN_POINT('',(0.2575,3.15336136109262E-17,-0.563));
#510=CARTESIAN_POINT('Origin',(2.50022225145586E-16,7.29696337329436E-33,
-0.563));
#511=CARTESIAN_POINT('Origin',(0.,0.,0.2669502993762));
#512=CARTESIAN_POINT('',(-0.2575,3.15346550780443E-17,-0.17));
#513=CARTESIAN_POINT('Origin',(0.,0.,-0.17));
#514=CARTESIAN_POINT('',(-0.2575,-3.15346550780443E-17,-0.510782433380844));
#515=CARTESIAN_POINT('Origin',(2.35811370430383E-16,4.58583995202718E-48,
-0.510782433380844));
#516=CARTESIAN_POINT('Origin',(0.,0.,-0.17));
#517=CARTESIAN_POINT('',(0.3125,-3.82689485569493E-17,-0.17));
#518=CARTESIAN_POINT('Origin',(0.,0.,-0.17));
#519=CARTESIAN_POINT('Origin',(0.,0.,-1.092));
#520=CARTESIAN_POINT('',(0.344,4.21278498906689E-17,-1.107));
#521=CARTESIAN_POINT('Origin',(0.,0.,-1.107));
#522=CARTESIAN_POINT('Origin',(0.,0.,-1.107));
#523=CARTESIAN_POINT('',(0.335,-4.10256677714363E-17,-1.107));
#524=CARTESIAN_POINT('Origin',(0.,0.,-1.107));
#525=CARTESIAN_POINT('Origin',(0.,0.,-1.107));
#526=CARTESIAN_POINT('',(0.335,-4.10256677714363E-17,-1.232));
#527=CARTESIAN_POINT('Origin',(0.,0.,-1.232));
#528=CARTESIAN_POINT('Origin',(0.,0.,-1.232));
#529=CARTESIAN_POINT('Origin',(0.,0.,0.));
#530=CARTESIAN_POINT('',(0.425,5.2045770037451E-17,-0.164211616751135));
#531=CARTESIAN_POINT('Origin',(0.,0.,-0.164211616751135));
#532=CARTESIAN_POINT('',(0.425,-5.20474889637625E-17,-0.1655));
#533=CARTESIAN_POINT('Origin',(0.,0.,-0.1655));
#534=CARTESIAN_POINT('Origin',(0.,0.,1.43739444114291));
#535=CARTESIAN_POINT('',(0.3125,-3.82689485569493E-17,-0.1));
#536=CARTESIAN_POINT('Origin',(0.,0.,-0.1));
#537=CARTESIAN_POINT('Origin',(0.,0.,0.));
#538=CARTESIAN_POINT('',(0.3385,4.14529250768875E-17,-0.1));
#539=CARTESIAN_POINT('Origin',(0.,0.,-0.1));
#540=CARTESIAN_POINT('',(0.3385,4.14529250768875E-17,0.));
#541=CARTESIAN_POINT('Origin',(0.,0.,0.));
#542=CARTESIAN_POINT('Origin',(0.,0.,-0.1));
#543=CARTESIAN_POINT('Origin',(0.,0.,-0.12));
#544=CARTESIAN_POINT('',(0.59,7.22517748755203E-17,-0.12));
#545=CARTESIAN_POINT('Origin',(0.,0.,-0.12));
#546=CARTESIAN_POINT('Origin',(0.,0.,0.));
#547=CARTESIAN_POINT('',(0.59,7.22517748755203E-17,0.));
#548=CARTESIAN_POINT('Origin',(0.,0.,0.));
#549=CARTESIAN_POINT('Origin',(0.,0.,0.));
#550=CARTESIAN_POINT('Origin',(2.35811370430383E-16,4.58583995202718E-48,
-0.531));
#551=CARTESIAN_POINT('',(2.66426529275943E-16,0.25,-0.531));
#552=CARTESIAN_POINT('Origin',(2.35811370430383E-16,4.58583995202718E-48,
-0.531));
#553=CARTESIAN_POINT('Origin',(2.22044604925032E-16,4.31009616241639E-48,
-0.5));
#554=CARTESIAN_POINT('',(2.05640300794674E-16,0.25,-0.532));
#555=CARTESIAN_POINT('Origin',(2.36255459640234E-16,4.59473491298237E-48,
-0.532));
#556=CARTESIAN_POINT('Origin',(2.36255459640234E-16,4.59473491298237E-48,
-0.532));
#557=CARTESIAN_POINT('Origin',(2.87769807982841E-16,7.29696337329436E-33,
-0.648));
#558=CARTESIAN_POINT('',(0.2575,3.15336136109262E-17,-0.648));
#559=CARTESIAN_POINT('',(-0.2575,1.31270076185282E-16,-0.648));
#560=CARTESIAN_POINT('Origin',(2.31076237543628E-16,-3.73140103924758E-17,
-0.648));
#561=CARTESIAN_POINT('Origin',(2.31076237543628E-16,-3.73140103924758E-17,
-0.648));
#562=CARTESIAN_POINT('Origin',(2.79926050627135E-16,-3.73140103924758E-17,
-0.758));
#563=CARTESIAN_POINT('',(0.4375,-4.30896339663659E-16,-0.743));
#564=CARTESIAN_POINT('Origin',(2.73264712479384E-16,-3.73140103924758E-17,
-0.743));
#565=CARTESIAN_POINT('',(0.4075,-3.0410241924854E-16,-0.773));
#566=CARTESIAN_POINT('Origin',(2.86587388774886E-16,-3.73140103924758E-17,
-0.773));
#567=CARTESIAN_POINT('Origin',(2.86587388774886E-16,-3.73140103924758E-17,
-0.773));
#568=CARTESIAN_POINT('',(0.4375,-3.23743283704201E-16,-0.178));
#569=CARTESIAN_POINT('Origin',(2.23543089140982E-17,-3.73140103924758E-17,
-0.178));
#570=CARTESIAN_POINT('Origin',(2.86587388774886E-16,-3.73140103924758E-17,
-0.773));
#571=CARTESIAN_POINT('Origin',(1.56929707663473E-17,-3.73140103924758E-17,
-0.163));
#572=CARTESIAN_POINT('Origin',(6.24680081861676E-16,-3.73140103924758E-17,
-1.53431706330118));
#573=UNCERTAINTY_MEASURE_WITH_UNIT(LENGTH_MEASURE(0.000393700787401575),
#578,'DISTANCE_ACCURACY_VALUE',
'Maximum model space distance between geometric entities at asserted c
onnectivities');
#574=UNCERTAINTY_MEASURE_WITH_UNIT(LENGTH_MEASURE(0.000393700787401575),
#578,'DISTANCE_ACCURACY_VALUE',
'Maximum model space distance between geometric entities at asserted c
onnectivities');
#575=(
GEOMETRIC_REPRESENTATION_CONTEXT(3)
GLOBAL_UNCERTAINTY_ASSIGNED_CONTEXT((#573))
GLOBAL_UNIT_ASSIGNED_CONTEXT((#578,#583,#582))
REPRESENTATION_CONTEXT('','3D')
);
#576=(
GEOMETRIC_REPRESENTATION_CONTEXT(3)
GLOBAL_UNCERTAINTY_ASSIGNED_CONTEXT((#574))
GLOBAL_UNIT_ASSIGNED_CONTEXT((#578,#583,#582))
REPRESENTATION_CONTEXT('','3D')
);
#577=DIMENSIONAL_EXPONENTS(1.,0.,0.,0.,0.,0.,0.);
#578=(
CONVERSION_BASED_UNIT('inch',#581)
LENGTH_UNIT()
NAMED_UNIT(#577)
);
#579=(
LENGTH_UNIT()
NAMED_UNIT(*)
SI_UNIT(.MILLI.,.METRE.)
);
#580=(
LENGTH_UNIT()
NAMED_UNIT(*)
SI_UNIT(.CENTI.,.METRE.)
);
#581=LENGTH_MEASURE_WITH_UNIT(LENGTH_MEASURE(25.4),#579);
#582=(
NAMED_UNIT(*)
SI_UNIT($,.STERADIAN.)
SOLID_ANGLE_UNIT()
);
#583=(
NAMED_UNIT(*)
PLANE_ANGLE_UNIT()
SI_UNIT($,.RADIAN.)
);
#584=SHAPE_DEFINITION_REPRESENTATION(#585,#586);
#585=PRODUCT_DEFINITION_SHAPE('',$,#588);
#586=SHAPE_REPRESENTATION('',(#339),#575);
#587=PRODUCT_DEFINITION_CONTEXT('part definition',#592,'design');
#588=PRODUCT_DEFINITION('1000003_S','1000003_S',#589,#587);
#589=PRODUCT_DEFINITION_FORMATION('',$,#594);
#590=PRODUCT_RELATED_PRODUCT_CATEGORY('1000003_S','1000003_S',(#594));
#591=APPLICATION_PROTOCOL_DEFINITION('international standard',
'automotive_design',2009,#592);
#592=APPLICATION_CONTEXT(
'Core Data for Automotive Mechanical Design Process');
#593=PRODUCT_CONTEXT('part definition',#592,'mechanical');
#594=PRODUCT('1000003_S','1000003_S',$,(#593));
#595=PRESENTATION_STYLE_ASSIGNMENT((#602));
#596=PRESENTATION_STYLE_ASSIGNMENT((#603));
#597=PRESENTATION_STYLE_ASSIGNMENT((#604));
#598=PRESENTATION_STYLE_ASSIGNMENT((#605));
#599=PRESENTATION_STYLE_ASSIGNMENT((#606));
#600=PRESENTATION_STYLE_ASSIGNMENT((#607));
#601=PRESENTATION_STYLE_ASSIGNMENT((#608));
#602=SURFACE_STYLE_USAGE(.BOTH.,#609);
#603=SURFACE_STYLE_USAGE(.BOTH.,#610);
#604=SURFACE_STYLE_USAGE(.BOTH.,#611);
#605=SURFACE_STYLE_USAGE(.BOTH.,#612);
#606=SURFACE_STYLE_USAGE(.BOTH.,#613);
#607=SURFACE_STYLE_USAGE(.BOTH.,#614);
#608=SURFACE_STYLE_USAGE(.BOTH.,#615);
#609=SURFACE_SIDE_STYLE('',(#616));
#610=SURFACE_SIDE_STYLE('',(#617));
#611=SURFACE_SIDE_STYLE('',(#618));
#612=SURFACE_SIDE_STYLE('',(#619));
#613=SURFACE_SIDE_STYLE('',(#620));
#614=SURFACE_SIDE_STYLE('',(#621));
#615=SURFACE_SIDE_STYLE('',(#622));
#616=SURFACE_STYLE_FILL_AREA(#623);
#617=SURFACE_STYLE_FILL_AREA(#624);
#618=SURFACE_STYLE_FILL_AREA(#625);
#619=SURFACE_STYLE_FILL_AREA(#626);
#620=SURFACE_STYLE_FILL_AREA(#627);
#621=SURFACE_STYLE_FILL_AREA(#628);
#622=SURFACE_STYLE_FILL_AREA(#629);
#623=FILL_AREA_STYLE('',(#630));
#624=FILL_AREA_STYLE('',(#631));
#625=FILL_AREA_STYLE('',(#632));
#626=FILL_AREA_STYLE('',(#633));
#627=FILL_AREA_STYLE('',(#634));
#628=FILL_AREA_STYLE('',(#635));
#629=FILL_AREA_STYLE('',(#636));
#630=FILL_AREA_STYLE_COLOUR('',#637);
#631=FILL_AREA_STYLE_COLOUR('',#638);
#632=FILL_AREA_STYLE_COLOUR('',#639);
#633=FILL_AREA_STYLE_COLOUR('',#640);
#634=FILL_AREA_STYLE_COLOUR('',#641);
#635=FILL_AREA_STYLE_COLOUR('',#642);
#636=FILL_AREA_STYLE_COLOUR('',#643);
#637=COLOUR_RGB('',0.752941176470588,0.752941176470588,0.752941176470588);
#638=COLOUR_RGB('',0.87843137254902,0.874509803921569,0.858823529411765);
#639=COLOUR_RGB('',0.745098039215686,0.737254901960784,0.729411764705882);
#640=COLOUR_RGB('',0.250980392156863,0.250980392156863,0.250980392156863);
#641=COLOUR_RGB('',0.87843137254902,0.874509803921569,0.858823529411765);
#642=COLOUR_RGB('',0.415686274509804,0.494117647058824,0.537254901960784);
#643=COLOUR_RGB('',0.482352941176471,0.482352941176471,0.482352941176471);
ENDSEC;
END-ISO-10303-21;
