ISO-10303-21;
HEADER;
/* Generated by software containing ST-Developer
 * from STEP Tools, Inc. (www.steptools.com) 
 */

FILE_DESCRIPTION(
/* description */ (''),
/* implementation_level */ '2;1');

FILE_NAME(
/* name */ 'G:\\Flanges + FITTINGS\\NW16KF\\Step files\\FL-16KF-19SW.s
tp',
/* time_stamp */ '2018-03-28T13:10:12+01:00',
/* author */ ('paul'),
/* organization */ (''),
/* preprocessor_version */ 'ST-DEVELOPER v17',
/* originating_system */ 'Autodesk Inventor 2018',
/* authorisation */ '');

FILE_SCHEMA (('AUTOMOTIVE_DESIGN { 1 0 10303 214 3 1 1 }'));
ENDSEC;

DATA;
#10=MECHANICAL_DESIGN_GEOMETRIC_PRESENTATION_REPRESENTATION('',(#13),#371);
#11=SHAPE_REPRESENTATION_RELATIONSHIP('SRR','None',#378,#12);
#12=ADVANCED_BREP_SHAPE_REPRESENTATION('',(#14),#370);
#13=STYLED_ITEM('',(#387),#14);
#14=MANIFOLD_SOLID_BREP('Solid1',#193);
#15=FACE_BOUND('',#38,.T.);
#16=FACE_BOUND('',#41,.T.);
#17=FACE_BOUND('',#44,.T.);
#18=FACE_BOUND('',#47,.T.);
#19=PLANE('',#224);
#20=PLANE('',#230);
#21=PLANE('',#236);
#22=PLANE('',#242);
#23=CONICAL_SURFACE('',#218,12.65,1.30899693899575);
#24=FACE_OUTER_BOUND('',#34,.T.);
#25=FACE_OUTER_BOUND('',#35,.T.);
#26=FACE_OUTER_BOUND('',#36,.T.);
#27=FACE_OUTER_BOUND('',#37,.T.);
#28=FACE_OUTER_BOUND('',#39,.T.);
#29=FACE_OUTER_BOUND('',#40,.T.);
#30=FACE_OUTER_BOUND('',#42,.T.);
#31=FACE_OUTER_BOUND('',#43,.T.);
#32=FACE_OUTER_BOUND('',#45,.T.);
#33=FACE_OUTER_BOUND('',#46,.T.);
#34=EDGE_LOOP('',(#126,#127,#128,#129,#130,#131));
#35=EDGE_LOOP('',(#132,#133,#134,#135,#136,#137));
#36=EDGE_LOOP('',(#138,#139,#140,#141,#142,#143));
#37=EDGE_LOOP('',(#144,#145));
#38=EDGE_LOOP('',(#146,#147));
#39=EDGE_LOOP('',(#148,#149,#150,#151,#152,#153));
#40=EDGE_LOOP('',(#154,#155));
#41=EDGE_LOOP('',(#156,#157));
#42=EDGE_LOOP('',(#158,#159,#160,#161,#162,#163));
#43=EDGE_LOOP('',(#164,#165));
#44=EDGE_LOOP('',(#166,#167));
#45=EDGE_LOOP('',(#168,#169,#170,#171,#172,#173));
#46=EDGE_LOOP('',(#174,#175));
#47=EDGE_LOOP('',(#176,#177));
#48=LINE('',#318,#54);
#49=LINE('',#327,#55);
#50=LINE('',#333,#56);
#51=LINE('',#341,#57);
#52=LINE('',#352,#58);
#53=LINE('',#363,#59);
#54=VECTOR('',#251,15.);
#55=VECTOR('',#262,12.65);
#56=VECTOR('',#269,10.3);
#57=VECTOR('',#278,9.6);
#58=VECTOR('',#291,8.1);
#59=VECTOR('',#304,8.6);
#60=CIRCLE('',#214,15.);
#61=CIRCLE('',#215,15.);
#62=CIRCLE('',#216,15.);
#63=CIRCLE('',#217,15.);
#64=CIRCLE('',#219,10.3);
#65=CIRCLE('',#220,10.3);
#66=CIRCLE('',#222,10.3);
#67=CIRCLE('',#223,10.3);
#68=CIRCLE('',#225,9.6);
#69=CIRCLE('',#226,9.6);
#70=CIRCLE('',#228,9.6);
#71=CIRCLE('',#229,9.6);
#72=CIRCLE('',#231,8.1);
#73=CIRCLE('',#232,8.1);
#74=CIRCLE('',#234,8.1);
#75=CIRCLE('',#235,8.1);
#76=CIRCLE('',#237,8.6);
#77=CIRCLE('',#238,8.6);
#78=CIRCLE('',#240,8.6);
#79=CIRCLE('',#241,8.6);
#80=VERTEX_POINT('',#313);
#81=VERTEX_POINT('',#314);
#82=VERTEX_POINT('',#317);
#83=VERTEX_POINT('',#319);
#84=VERTEX_POINT('',#323);
#85=VERTEX_POINT('',#324);
#86=VERTEX_POINT('',#329);
#87=VERTEX_POINT('',#330);
#88=VERTEX_POINT('',#335);
#89=VERTEX_POINT('',#336);
#90=VERTEX_POINT('',#340);
#91=VERTEX_POINT('',#342);
#92=VERTEX_POINT('',#346);
#93=VERTEX_POINT('',#347);
#94=VERTEX_POINT('',#351);
#95=VERTEX_POINT('',#353);
#96=VERTEX_POINT('',#357);
#97=VERTEX_POINT('',#358);
#98=VERTEX_POINT('',#362);
#99=VERTEX_POINT('',#364);
#100=EDGE_CURVE('',#80,#81,#60,.T.);
#101=EDGE_CURVE('',#81,#80,#61,.T.);
#102=EDGE_CURVE('',#81,#82,#48,.T.);
#103=EDGE_CURVE('',#82,#83,#62,.T.);
#104=EDGE_CURVE('',#83,#82,#63,.T.);
#105=EDGE_CURVE('',#84,#85,#64,.T.);
#106=EDGE_CURVE('',#85,#84,#65,.T.);
#107=EDGE_CURVE('',#85,#81,#49,.T.);
#108=EDGE_CURVE('',#86,#87,#66,.T.);
#109=EDGE_CURVE('',#87,#86,#67,.T.);
#110=EDGE_CURVE('',#87,#85,#50,.T.);
#111=EDGE_CURVE('',#88,#89,#68,.T.);
#112=EDGE_CURVE('',#89,#88,#69,.T.);
#113=EDGE_CURVE('',#89,#90,#51,.T.);
#114=EDGE_CURVE('',#91,#90,#70,.T.);
#115=EDGE_CURVE('',#90,#91,#71,.T.);
#116=EDGE_CURVE('',#92,#93,#72,.T.);
#117=EDGE_CURVE('',#93,#92,#73,.T.);
#118=EDGE_CURVE('',#93,#94,#52,.T.);
#119=EDGE_CURVE('',#95,#94,#74,.T.);
#120=EDGE_CURVE('',#94,#95,#75,.T.);
#121=EDGE_CURVE('',#96,#97,#76,.T.);
#122=EDGE_CURVE('',#97,#96,#77,.T.);
#123=EDGE_CURVE('',#97,#98,#53,.T.);
#124=EDGE_CURVE('',#99,#98,#78,.T.);
#125=EDGE_CURVE('',#98,#99,#79,.T.);
#126=ORIENTED_EDGE('',*,*,#100,.F.);
#127=ORIENTED_EDGE('',*,*,#101,.F.);
#128=ORIENTED_EDGE('',*,*,#102,.T.);
#129=ORIENTED_EDGE('',*,*,#103,.T.);
#130=ORIENTED_EDGE('',*,*,#104,.T.);
#131=ORIENTED_EDGE('',*,*,#102,.F.);
#132=ORIENTED_EDGE('',*,*,#105,.F.);
#133=ORIENTED_EDGE('',*,*,#106,.F.);
#134=ORIENTED_EDGE('',*,*,#107,.T.);
#135=ORIENTED_EDGE('',*,*,#101,.T.);
#136=ORIENTED_EDGE('',*,*,#100,.T.);
#137=ORIENTED_EDGE('',*,*,#107,.F.);
#138=ORIENTED_EDGE('',*,*,#108,.F.);
#139=ORIENTED_EDGE('',*,*,#109,.F.);
#140=ORIENTED_EDGE('',*,*,#110,.T.);
#141=ORIENTED_EDGE('',*,*,#106,.T.);
#142=ORIENTED_EDGE('',*,*,#105,.T.);
#143=ORIENTED_EDGE('',*,*,#110,.F.);
#144=ORIENTED_EDGE('',*,*,#108,.T.);
#145=ORIENTED_EDGE('',*,*,#109,.T.);
#146=ORIENTED_EDGE('',*,*,#111,.F.);
#147=ORIENTED_EDGE('',*,*,#112,.F.);
#148=ORIENTED_EDGE('',*,*,#111,.T.);
#149=ORIENTED_EDGE('',*,*,#113,.T.);
#150=ORIENTED_EDGE('',*,*,#114,.F.);
#151=ORIENTED_EDGE('',*,*,#115,.F.);
#152=ORIENTED_EDGE('',*,*,#113,.F.);
#153=ORIENTED_EDGE('',*,*,#112,.T.);
#154=ORIENTED_EDGE('',*,*,#114,.T.);
#155=ORIENTED_EDGE('',*,*,#115,.T.);
#156=ORIENTED_EDGE('',*,*,#116,.F.);
#157=ORIENTED_EDGE('',*,*,#117,.F.);
#158=ORIENTED_EDGE('',*,*,#116,.T.);
#159=ORIENTED_EDGE('',*,*,#118,.T.);
#160=ORIENTED_EDGE('',*,*,#119,.F.);
#161=ORIENTED_EDGE('',*,*,#120,.F.);
#162=ORIENTED_EDGE('',*,*,#118,.F.);
#163=ORIENTED_EDGE('',*,*,#117,.T.);
#164=ORIENTED_EDGE('',*,*,#121,.F.);
#165=ORIENTED_EDGE('',*,*,#122,.F.);
#166=ORIENTED_EDGE('',*,*,#119,.T.);
#167=ORIENTED_EDGE('',*,*,#120,.T.);
#168=ORIENTED_EDGE('',*,*,#121,.T.);
#169=ORIENTED_EDGE('',*,*,#123,.T.);
#170=ORIENTED_EDGE('',*,*,#124,.F.);
#171=ORIENTED_EDGE('',*,*,#125,.F.);
#172=ORIENTED_EDGE('',*,*,#123,.F.);
#173=ORIENTED_EDGE('',*,*,#122,.T.);
#174=ORIENTED_EDGE('',*,*,#104,.F.);
#175=ORIENTED_EDGE('',*,*,#103,.F.);
#176=ORIENTED_EDGE('',*,*,#124,.T.);
#177=ORIENTED_EDGE('',*,*,#125,.T.);
#178=CYLINDRICAL_SURFACE('',#213,15.);
#179=CYLINDRICAL_SURFACE('',#221,10.3);
#180=CYLINDRICAL_SURFACE('',#227,9.6);
#181=CYLINDRICAL_SURFACE('',#233,8.1);
#182=CYLINDRICAL_SURFACE('',#239,8.6);
#183=ADVANCED_FACE('',(#24),#178,.T.);
#184=ADVANCED_FACE('',(#25),#23,.T.);
#185=ADVANCED_FACE('',(#26),#179,.T.);
#186=ADVANCED_FACE('',(#27,#15),#19,.T.);
#187=ADVANCED_FACE('',(#28),#180,.F.);
#188=ADVANCED_FACE('',(#29,#16),#20,.T.);
#189=ADVANCED_FACE('',(#30),#181,.F.);
#190=ADVANCED_FACE('',(#31,#17),#21,.T.);
#191=ADVANCED_FACE('',(#32),#182,.F.);
#192=ADVANCED_FACE('',(#33,#18),#22,.T.);
#193=CLOSED_SHELL('',(#183,#184,#185,#186,#187,#188,#189,#190,#191,#192));
#194=DERIVED_UNIT_ELEMENT(#196,1.);
#195=DERIVED_UNIT_ELEMENT(#373,3.);
#196=(
MASS_UNIT()
NAMED_UNIT(*)
SI_UNIT($,.GRAM.)
);
#197=DERIVED_UNIT((#194,#195));
#198=MEASURE_REPRESENTATION_ITEM('density measure',
POSITIVE_RATIO_MEASURE(8.),#197);
#199=PROPERTY_DEFINITION_REPRESENTATION(#204,#201);
#200=PROPERTY_DEFINITION_REPRESENTATION(#205,#202);
#201=REPRESENTATION('material name',(#203),#370);
#202=REPRESENTATION('density',(#198),#370);
#203=DESCRIPTIVE_REPRESENTATION_ITEM('Stainless Steel AISI 304',
'Stainless Steel AISI 304');
#204=PROPERTY_DEFINITION('material property','material name',#380);
#205=PROPERTY_DEFINITION('material property','density of part',#380);
#206=DATE_TIME_ROLE('creation_date');
#207=APPLIED_DATE_AND_TIME_ASSIGNMENT(#208,#206,(#380));
#208=DATE_AND_TIME(#209,#210);
#209=CALENDAR_DATE(2014,20,11);
#210=LOCAL_TIME(11,0,44.,#211);
#211=COORDINATED_UNIVERSAL_TIME_OFFSET(0,0,.BEHIND.);
#212=AXIS2_PLACEMENT_3D('placement',#311,#243,#244);
#213=AXIS2_PLACEMENT_3D('',#312,#245,#246);
#214=AXIS2_PLACEMENT_3D('',#315,#247,#248);
#215=AXIS2_PLACEMENT_3D('',#316,#249,#250);
#216=AXIS2_PLACEMENT_3D('',#320,#252,#253);
#217=AXIS2_PLACEMENT_3D('',#321,#254,#255);
#218=AXIS2_PLACEMENT_3D('',#322,#256,#257);
#219=AXIS2_PLACEMENT_3D('',#325,#258,#259);
#220=AXIS2_PLACEMENT_3D('',#326,#260,#261);
#221=AXIS2_PLACEMENT_3D('',#328,#263,#264);
#222=AXIS2_PLACEMENT_3D('',#331,#265,#266);
#223=AXIS2_PLACEMENT_3D('',#332,#267,#268);
#224=AXIS2_PLACEMENT_3D('',#334,#270,#271);
#225=AXIS2_PLACEMENT_3D('',#337,#272,#273);
#226=AXIS2_PLACEMENT_3D('',#338,#274,#275);
#227=AXIS2_PLACEMENT_3D('',#339,#276,#277);
#228=AXIS2_PLACEMENT_3D('',#343,#279,#280);
#229=AXIS2_PLACEMENT_3D('',#344,#281,#282);
#230=AXIS2_PLACEMENT_3D('',#345,#283,#284);
#231=AXIS2_PLACEMENT_3D('',#348,#285,#286);
#232=AXIS2_PLACEMENT_3D('',#349,#287,#288);
#233=AXIS2_PLACEMENT_3D('',#350,#289,#290);
#234=AXIS2_PLACEMENT_3D('',#354,#292,#293);
#235=AXIS2_PLACEMENT_3D('',#355,#294,#295);
#236=AXIS2_PLACEMENT_3D('',#356,#296,#297);
#237=AXIS2_PLACEMENT_3D('',#359,#298,#299);
#238=AXIS2_PLACEMENT_3D('',#360,#300,#301);
#239=AXIS2_PLACEMENT_3D('',#361,#302,#303);
#240=AXIS2_PLACEMENT_3D('',#365,#305,#306);
#241=AXIS2_PLACEMENT_3D('',#366,#307,#308);
#242=AXIS2_PLACEMENT_3D('',#367,#309,#310);
#243=DIRECTION('axis',(0.,0.,1.));
#244=DIRECTION('refdir',(1.,0.,0.));
#245=DIRECTION('center_axis',(0.,1.,0.));
#246=DIRECTION('ref_axis',(-1.,0.,0.));
#247=DIRECTION('center_axis',(0.,1.,0.));
#248=DIRECTION('ref_axis',(1.,0.,0.));
#249=DIRECTION('center_axis',(0.,1.,0.));
#250=DIRECTION('ref_axis',(1.,0.,0.));
#251=DIRECTION('',(0.,-1.,0.));
#252=DIRECTION('center_axis',(0.,1.,0.));
#253=DIRECTION('ref_axis',(1.,0.,0.));
#254=DIRECTION('center_axis',(0.,1.,0.));
#255=DIRECTION('ref_axis',(1.,0.,0.));
#256=DIRECTION('center_axis',(0.,-1.,0.));
#257=DIRECTION('ref_axis',(-1.,0.,0.));
#258=DIRECTION('center_axis',(0.,1.,0.));
#259=DIRECTION('ref_axis',(1.,0.,0.));
#260=DIRECTION('center_axis',(0.,1.,0.));
#261=DIRECTION('ref_axis',(1.,0.,0.));
#262=DIRECTION('',(0.965925826289068,-0.258819045102521,-1.18291797137867E-16));
#263=DIRECTION('center_axis',(0.,1.,0.));
#264=DIRECTION('ref_axis',(-1.,0.,0.));
#265=DIRECTION('center_axis',(0.,1.,0.));
#266=DIRECTION('ref_axis',(1.,0.,0.));
#267=DIRECTION('center_axis',(0.,1.,0.));
#268=DIRECTION('ref_axis',(1.,0.,0.));
#269=DIRECTION('',(0.,-1.,0.));
#270=DIRECTION('center_axis',(0.,1.,0.));
#271=DIRECTION('ref_axis',(0.,0.,1.));
#272=DIRECTION('center_axis',(0.,1.,0.));
#273=DIRECTION('ref_axis',(1.,0.,0.));
#274=DIRECTION('center_axis',(0.,1.,0.));
#275=DIRECTION('ref_axis',(1.,0.,0.));
#276=DIRECTION('center_axis',(0.,1.,0.));
#277=DIRECTION('ref_axis',(-1.,0.,0.));
#278=DIRECTION('',(0.,-1.,0.));
#279=DIRECTION('center_axis',(0.,1.,0.));
#280=DIRECTION('ref_axis',(1.,0.,0.));
#281=DIRECTION('center_axis',(0.,1.,0.));
#282=DIRECTION('ref_axis',(1.,0.,0.));
#283=DIRECTION('center_axis',(0.,1.,0.));
#284=DIRECTION('ref_axis',(0.,0.,1.));
#285=DIRECTION('center_axis',(0.,1.,0.));
#286=DIRECTION('ref_axis',(1.,0.,0.));
#287=DIRECTION('center_axis',(0.,1.,0.));
#288=DIRECTION('ref_axis',(1.,0.,0.));
#289=DIRECTION('center_axis',(0.,1.,0.));
#290=DIRECTION('ref_axis',(-1.,0.,0.));
#291=DIRECTION('',(0.,-1.,0.));
#292=DIRECTION('center_axis',(0.,1.,0.));
#293=DIRECTION('ref_axis',(1.,0.,0.));
#294=DIRECTION('center_axis',(0.,1.,0.));
#295=DIRECTION('ref_axis',(1.,0.,0.));
#296=DIRECTION('center_axis',(0.,-1.,0.));
#297=DIRECTION('ref_axis',(0.,0.,-1.));
#298=DIRECTION('center_axis',(0.,1.,0.));
#299=DIRECTION('ref_axis',(1.,0.,0.));
#300=DIRECTION('center_axis',(0.,1.,0.));
#301=DIRECTION('ref_axis',(1.,0.,0.));
#302=DIRECTION('center_axis',(0.,1.,0.));
#303=DIRECTION('ref_axis',(-1.,0.,0.));
#304=DIRECTION('',(0.,-1.,0.));
#305=DIRECTION('center_axis',(0.,1.,0.));
#306=DIRECTION('ref_axis',(1.,0.,0.));
#307=DIRECTION('center_axis',(0.,1.,0.));
#308=DIRECTION('ref_axis',(1.,0.,0.));
#309=DIRECTION('center_axis',(0.,-1.,0.));
#310=DIRECTION('ref_axis',(0.,0.,-1.));
#311=CARTESIAN_POINT('',(0.,0.,0.));
#312=CARTESIAN_POINT('Origin',(0.,1.5,0.));
#313=CARTESIAN_POINT('',(-15.,3.,0.));
#314=CARTESIAN_POINT('',(15.,3.,-1.83697019872103E-15));
#315=CARTESIAN_POINT('Origin',(0.,3.,0.));
#316=CARTESIAN_POINT('Origin',(0.,3.,0.));
#317=CARTESIAN_POINT('',(15.,0.,-1.83697019872103E-15));
#318=CARTESIAN_POINT('',(15.,1.5,-1.83697019872103E-15));
#319=CARTESIAN_POINT('',(-15.,0.,0.));
#320=CARTESIAN_POINT('Origin',(0.,0.,0.));
#321=CARTESIAN_POINT('Origin',(0.,0.,0.));
#322=CARTESIAN_POINT('Origin',(0.,3.62968060221314,0.));
#323=CARTESIAN_POINT('',(-10.3,4.25936120442628,0.));
#324=CARTESIAN_POINT('',(10.3,4.25936120442628,-1.26138620312177E-15));
#325=CARTESIAN_POINT('Origin',(0.,4.25936120442628,0.));
#326=CARTESIAN_POINT('Origin',(0.,4.25936120442628,0.));
#327=CARTESIAN_POINT('',(12.65,3.62968060221314,-1.5491782009214E-15));
#328=CARTESIAN_POINT('Origin',(0.,8.47968060221313,0.));
#329=CARTESIAN_POINT('',(-10.3,12.7,0.));
#330=CARTESIAN_POINT('',(10.3,12.7,-1.26138620312177E-15));
#331=CARTESIAN_POINT('Origin',(0.,12.7,0.));
#332=CARTESIAN_POINT('Origin',(0.,12.7,0.));
#333=CARTESIAN_POINT('',(10.3,8.47968060221313,-1.26138620312177E-15));
#334=CARTESIAN_POINT('Origin',(-9.6,12.7,0.));
#335=CARTESIAN_POINT('',(-9.6,12.7,0.));
#336=CARTESIAN_POINT('',(9.6,12.7,-1.17566092718146E-15));
#337=CARTESIAN_POINT('Origin',(0.,12.7,0.));
#338=CARTESIAN_POINT('Origin',(0.,12.7,0.));
#339=CARTESIAN_POINT('Origin',(0.,8.19999999999999,0.));
#340=CARTESIAN_POINT('',(9.6,3.69999999999999,-1.17566092718146E-15));
#341=CARTESIAN_POINT('',(9.6,8.19999999999999,-1.17566092718146E-15));
#342=CARTESIAN_POINT('',(-9.6,3.69999999999999,0.));
#343=CARTESIAN_POINT('Origin',(0.,3.69999999999999,0.));
#344=CARTESIAN_POINT('Origin',(0.,3.69999999999999,0.));
#345=CARTESIAN_POINT('Origin',(-8.1,3.69999999999999,0.));
#346=CARTESIAN_POINT('',(-8.1,3.69999999999999,0.));
#347=CARTESIAN_POINT('',(8.1,3.69999999999999,-9.91963907309356E-16));
#348=CARTESIAN_POINT('Origin',(0.,3.69999999999999,0.));
#349=CARTESIAN_POINT('Origin',(0.,3.69999999999999,0.));
#350=CARTESIAN_POINT('Origin',(0.,3.1,0.));
#351=CARTESIAN_POINT('',(8.1,2.5,-9.91963907309356E-16));
#352=CARTESIAN_POINT('',(8.1,3.1,-9.91963907309356E-16));
#353=CARTESIAN_POINT('',(-8.1,2.5,0.));
#354=CARTESIAN_POINT('Origin',(0.,2.5,0.));
#355=CARTESIAN_POINT('Origin',(0.,2.5,0.));
#356=CARTESIAN_POINT('Origin',(-8.6,2.5,0.));
#357=CARTESIAN_POINT('',(-8.6,2.5,0.));
#358=CARTESIAN_POINT('',(8.6,2.5,-1.05319624726672E-15));
#359=CARTESIAN_POINT('Origin',(0.,2.5,0.));
#360=CARTESIAN_POINT('Origin',(0.,2.5,0.));
#361=CARTESIAN_POINT('Origin',(0.,1.25,0.));
#362=CARTESIAN_POINT('',(8.6,0.,-1.05319624726672E-15));
#363=CARTESIAN_POINT('',(8.6,1.25,-1.05319624726672E-15));
#364=CARTESIAN_POINT('',(-8.6,0.,0.));
#365=CARTESIAN_POINT('Origin',(0.,0.,0.));
#366=CARTESIAN_POINT('Origin',(0.,0.,0.));
#367=CARTESIAN_POINT('Origin',(-15.,0.,0.));
#368=UNCERTAINTY_MEASURE_WITH_UNIT(LENGTH_MEASURE(0.01),#372,
'DISTANCE_ACCURACY_VALUE',
'Maximum model space distance between geometric entities at asserted c
onnectivities');
#369=UNCERTAINTY_MEASURE_WITH_UNIT(LENGTH_MEASURE(0.01),#372,
'DISTANCE_ACCURACY_VALUE',
'Maximum model space distance between geometric entities at asserted c
onnectivities');
#370=(
GEOMETRIC_REPRESENTATION_CONTEXT(3)
GLOBAL_UNCERTAINTY_ASSIGNED_CONTEXT((#368))
GLOBAL_UNIT_ASSIGNED_CONTEXT((#372,#375,#374))
REPRESENTATION_CONTEXT('','3D')
);
#371=(
GEOMETRIC_REPRESENTATION_CONTEXT(3)
GLOBAL_UNCERTAINTY_ASSIGNED_CONTEXT((#369))
GLOBAL_UNIT_ASSIGNED_CONTEXT((#372,#375,#374))
REPRESENTATION_CONTEXT('','3D')
);
#372=(
LENGTH_UNIT()
NAMED_UNIT(*)
SI_UNIT(.MILLI.,.METRE.)
);
#373=(
LENGTH_UNIT()
NAMED_UNIT(*)
SI_UNIT(.CENTI.,.METRE.)
);
#374=(
NAMED_UNIT(*)
SI_UNIT($,.STERADIAN.)
SOLID_ANGLE_UNIT()
);
#375=(
NAMED_UNIT(*)
PLANE_ANGLE_UNIT()
SI_UNIT($,.RADIAN.)
);
#376=SHAPE_DEFINITION_REPRESENTATION(#377,#378);
#377=PRODUCT_DEFINITION_SHAPE('',$,#380);
#378=SHAPE_REPRESENTATION('',(#212),#370);
#379=PRODUCT_DEFINITION_CONTEXT('part definition',#384,'design');
#380=PRODUCT_DEFINITION('FL-16KF-19SW','FL-16KF-19SW',#381,#379);
#381=PRODUCT_DEFINITION_FORMATION('',$,#386);
#382=PRODUCT_RELATED_PRODUCT_CATEGORY('FL-16KF-19SW','FL-16KF-19SW',(#386));
#383=APPLICATION_PROTOCOL_DEFINITION('international standard',
'automotive_design',2009,#384);
#384=APPLICATION_CONTEXT(
'Core Data for Automotive Mechanical Design Process');
#385=PRODUCT_CONTEXT('part definition',#384,'mechanical');
#386=PRODUCT('FL-16KF-19SW','FL-16KF-19SW',$,(#385));
#387=PRESENTATION_STYLE_ASSIGNMENT((#388));
#388=SURFACE_STYLE_USAGE(.BOTH.,#389);
#389=SURFACE_SIDE_STYLE('',(#390));
#390=SURFACE_STYLE_FILL_AREA(#391);
#391=FILL_AREA_STYLE('',(#392));
#392=FILL_AREA_STYLE_COLOUR('',#393);
#393=COLOUR_RGB('',0.745098039215686,0.737254901960784,0.729411764705882);
ENDSEC;
END-ISO-10303-21;
