ISO-10303-21;
HEADER;
/* Generated by software containing ST-Developer
 * from STEP Tools, Inc. (www.steptools.com) 
 */

FILE_DESCRIPTION(
/* description */ (''),
/* implementation_level */ '2;1');

FILE_NAME(
/* name */ 
'G:\\FLANGES & FITTINGS\\LIQUID FEEDTHROUGHS SECTION 3.5\\METRIC TUBES
  OR FITTINGS\\STEP files\\FL-LF2-6MM-40KF.stp',
/* time_stamp */ '2020-11-23T08:26:38+00:00',
/* author */ ('Paul'),
/* organization */ (''),
/* preprocessor_version */ 'ST-DEVELOPER v18.1',
/* originating_system */ 'Autodesk Inventor 2021',
/* authorisation */ '');

FILE_SCHEMA (('AUTOMOTIVE_DESIGN { 1 0 10303 214 3 1 1 }'));
ENDSEC;

DATA;
#10=MECHANICAL_DESIGN_GEOMETRIC_PRESENTATION_REPRESENTATION('',(#27,#28),
#412);
#11=ITEM_DEFINED_TRANSFORMATION($,$,#273,#282);
#12=ITEM_DEFINED_TRANSFORMATION($,$,#255,#283);
#13=ITEM_DEFINED_TRANSFORMATION($,$,#273,#284);
#14=(
REPRESENTATION_RELATIONSHIP($,$,#428,#426)
REPRESENTATION_RELATIONSHIP_WITH_TRANSFORMATION(#11)
SHAPE_REPRESENTATION_RELATIONSHIP()
);
#15=(
REPRESENTATION_RELATIONSHIP($,$,#427,#426)
REPRESENTATION_RELATIONSHIP_WITH_TRANSFORMATION(#12)
SHAPE_REPRESENTATION_RELATIONSHIP()
);
#16=(
REPRESENTATION_RELATIONSHIP($,$,#428,#426)
REPRESENTATION_RELATIONSHIP_WITH_TRANSFORMATION(#13)
SHAPE_REPRESENTATION_RELATIONSHIP()
);
#17=CONTEXT_DEPENDENT_SHAPE_REPRESENTATION(#14,#423);
#18=CONTEXT_DEPENDENT_SHAPE_REPRESENTATION(#15,#424);
#19=CONTEXT_DEPENDENT_SHAPE_REPRESENTATION(#16,#425);
#20=NEXT_ASSEMBLY_USAGE_OCCURRENCE('6mm tube for tube end version:1',
'6mm tube for tube end version:1','6mm tube for tube end version:1',#430,
#432,'6mm tube for tube end version:1');
#21=NEXT_ASSEMBLY_USAGE_OCCURRENCE('FL-40KF:1','FL-40KF:1','FL-40KF:1',
#430,#431,'FL-40KF:1');
#22=NEXT_ASSEMBLY_USAGE_OCCURRENCE('6mm tube for tube end version:2',
'6mm tube for tube end version:2','6mm tube for tube end version:2',#430,
#432,'6mm tube for tube end version:2');
#23=SHAPE_REPRESENTATION_RELATIONSHIP('SRR','None',#427,#25);
#24=SHAPE_REPRESENTATION_RELATIONSHIP('SRR','None',#428,#26);
#25=ADVANCED_BREP_SHAPE_REPRESENTATION('',(#29),#410);
#26=ADVANCED_BREP_SHAPE_REPRESENTATION('',(#30),#411);
#27=STYLED_ITEM('',(#218),#29);
#28=STYLED_ITEM('',(#219),#30);
#29=MANIFOLD_SOLID_BREP('Solid1',#193);
#30=MANIFOLD_SOLID_BREP('Solid1',#194);
#31=FACE_BOUND('',#61,.T.);
#32=FACE_BOUND('',#62,.T.);
#33=FACE_BOUND('',#64,.T.);
#34=FACE_BOUND('',#65,.T.);
#35=FACE_BOUND('',#68,.T.);
#36=FACE_BOUND('',#72,.T.);
#37=FACE_BOUND('',#74,.T.);
#38=PLANE('',#267);
#39=PLANE('',#268);
#40=PLANE('',#272);
#41=PLANE('',#280);
#42=PLANE('',#281);
#43=CONICAL_SURFACE('',#265,23.7679491924311,1.30899693899575);
#44=FACE_OUTER_BOUND('',#56,.T.);
#45=FACE_OUTER_BOUND('',#57,.T.);
#46=FACE_OUTER_BOUND('',#58,.T.);
#47=FACE_OUTER_BOUND('',#59,.T.);
#48=FACE_OUTER_BOUND('',#60,.T.);
#49=FACE_OUTER_BOUND('',#63,.T.);
#50=FACE_OUTER_BOUND('',#66,.T.);
#51=FACE_OUTER_BOUND('',#67,.T.);
#52=FACE_OUTER_BOUND('',#69,.T.);
#53=FACE_OUTER_BOUND('',#70,.T.);
#54=FACE_OUTER_BOUND('',#71,.T.);
#55=FACE_OUTER_BOUND('',#73,.T.);
#56=EDGE_LOOP('',(#135,#136,#137,#138));
#57=EDGE_LOOP('',(#139,#140,#141,#142));
#58=EDGE_LOOP('',(#143,#144,#145,#146));
#59=EDGE_LOOP('',(#147,#148,#149,#150));
#60=EDGE_LOOP('',(#151));
#61=EDGE_LOOP('',(#152));
#62=EDGE_LOOP('',(#153));
#63=EDGE_LOOP('',(#154));
#64=EDGE_LOOP('',(#155));
#65=EDGE_LOOP('',(#156));
#66=EDGE_LOOP('',(#157,#158,#159,#160));
#67=EDGE_LOOP('',(#161));
#68=EDGE_LOOP('',(#162));
#69=EDGE_LOOP('',(#163,#164,#165,#166));
#70=EDGE_LOOP('',(#167,#168,#169,#170));
#71=EDGE_LOOP('',(#171));
#72=EDGE_LOOP('',(#172));
#73=EDGE_LOOP('',(#173));
#74=EDGE_LOOP('',(#174));
#75=LINE('',#360,#82);
#76=LINE('',#366,#83);
#77=LINE('',#372,#84);
#78=LINE('',#377,#85);
#79=LINE('',#384,#86);
#80=LINE('',#392,#87);
#81=LINE('',#398,#88);
#82=VECTOR('',#293,3.);
#83=VECTOR('',#300,3.);
#84=VECTOR('',#307,27.5);
#85=VECTOR('',#314,23.7679491924311);
#86=VECTOR('',#323,20.6);
#87=VECTOR('',#334,2.);
#88=VECTOR('',#341,3.);
#89=CIRCLE('',#257,3.);
#90=CIRCLE('',#258,3.);
#91=CIRCLE('',#260,3.);
#92=CIRCLE('',#261,3.);
#93=CIRCLE('',#263,27.5);
#94=CIRCLE('',#264,27.5);
#95=CIRCLE('',#266,20.0358983848623);
#96=CIRCLE('',#269,20.6);
#97=CIRCLE('',#271,20.6);
#98=CIRCLE('',#275,2.);
#99=CIRCLE('',#276,2.);
#100=CIRCLE('',#278,3.);
#101=CIRCLE('',#279,3.);
#102=VERTEX_POINT('',#357);
#103=VERTEX_POINT('',#359);
#104=VERTEX_POINT('',#363);
#105=VERTEX_POINT('',#365);
#106=VERTEX_POINT('',#369);
#107=VERTEX_POINT('',#371);
#108=VERTEX_POINT('',#375);
#109=VERTEX_POINT('',#380);
#110=VERTEX_POINT('',#383);
#111=VERTEX_POINT('',#389);
#112=VERTEX_POINT('',#391);
#113=VERTEX_POINT('',#395);
#114=VERTEX_POINT('',#397);
#115=EDGE_CURVE('',#102,#102,#89,.T.);
#116=EDGE_CURVE('',#102,#103,#75,.T.);
#117=EDGE_CURVE('',#103,#103,#90,.T.);
#118=EDGE_CURVE('',#104,#104,#91,.T.);
#119=EDGE_CURVE('',#104,#105,#76,.T.);
#120=EDGE_CURVE('',#105,#105,#92,.T.);
#121=EDGE_CURVE('',#106,#106,#93,.T.);
#122=EDGE_CURVE('',#106,#107,#77,.T.);
#123=EDGE_CURVE('',#107,#107,#94,.T.);
#124=EDGE_CURVE('',#108,#108,#95,.T.);
#125=EDGE_CURVE('',#108,#106,#78,.T.);
#126=EDGE_CURVE('',#109,#109,#96,.T.);
#127=EDGE_CURVE('',#109,#110,#79,.T.);
#128=EDGE_CURVE('',#110,#110,#97,.T.);
#129=EDGE_CURVE('',#111,#111,#98,.T.);
#130=EDGE_CURVE('',#111,#112,#80,.T.);
#131=EDGE_CURVE('',#112,#112,#99,.T.);
#132=EDGE_CURVE('',#113,#113,#100,.T.);
#133=EDGE_CURVE('',#113,#114,#81,.T.);
#134=EDGE_CURVE('',#114,#114,#101,.T.);
#135=ORIENTED_EDGE('',*,*,#115,.F.);
#136=ORIENTED_EDGE('',*,*,#116,.T.);
#137=ORIENTED_EDGE('',*,*,#117,.F.);
#138=ORIENTED_EDGE('',*,*,#116,.F.);
#139=ORIENTED_EDGE('',*,*,#118,.F.);
#140=ORIENTED_EDGE('',*,*,#119,.T.);
#141=ORIENTED_EDGE('',*,*,#120,.F.);
#142=ORIENTED_EDGE('',*,*,#119,.F.);
#143=ORIENTED_EDGE('',*,*,#121,.F.);
#144=ORIENTED_EDGE('',*,*,#122,.T.);
#145=ORIENTED_EDGE('',*,*,#123,.T.);
#146=ORIENTED_EDGE('',*,*,#122,.F.);
#147=ORIENTED_EDGE('',*,*,#124,.F.);
#148=ORIENTED_EDGE('',*,*,#125,.T.);
#149=ORIENTED_EDGE('',*,*,#121,.T.);
#150=ORIENTED_EDGE('',*,*,#125,.F.);
#151=ORIENTED_EDGE('',*,*,#124,.T.);
#152=ORIENTED_EDGE('',*,*,#115,.T.);
#153=ORIENTED_EDGE('',*,*,#118,.T.);
#154=ORIENTED_EDGE('',*,*,#126,.F.);
#155=ORIENTED_EDGE('',*,*,#117,.T.);
#156=ORIENTED_EDGE('',*,*,#120,.T.);
#157=ORIENTED_EDGE('',*,*,#126,.T.);
#158=ORIENTED_EDGE('',*,*,#127,.T.);
#159=ORIENTED_EDGE('',*,*,#128,.F.);
#160=ORIENTED_EDGE('',*,*,#127,.F.);
#161=ORIENTED_EDGE('',*,*,#123,.F.);
#162=ORIENTED_EDGE('',*,*,#128,.T.);
#163=ORIENTED_EDGE('',*,*,#129,.F.);
#164=ORIENTED_EDGE('',*,*,#130,.T.);
#165=ORIENTED_EDGE('',*,*,#131,.F.);
#166=ORIENTED_EDGE('',*,*,#130,.F.);
#167=ORIENTED_EDGE('',*,*,#132,.F.);
#168=ORIENTED_EDGE('',*,*,#133,.T.);
#169=ORIENTED_EDGE('',*,*,#134,.T.);
#170=ORIENTED_EDGE('',*,*,#133,.F.);
#171=ORIENTED_EDGE('',*,*,#132,.T.);
#172=ORIENTED_EDGE('',*,*,#131,.T.);
#173=ORIENTED_EDGE('',*,*,#134,.F.);
#174=ORIENTED_EDGE('',*,*,#129,.T.);
#175=CYLINDRICAL_SURFACE('',#256,3.);
#176=CYLINDRICAL_SURFACE('',#259,3.);
#177=CYLINDRICAL_SURFACE('',#262,27.5);
#178=CYLINDRICAL_SURFACE('',#270,20.6);
#179=CYLINDRICAL_SURFACE('',#274,2.);
#180=CYLINDRICAL_SURFACE('',#277,3.);
#181=ADVANCED_FACE('',(#44),#175,.F.);
#182=ADVANCED_FACE('',(#45),#176,.F.);
#183=ADVANCED_FACE('',(#46),#177,.T.);
#184=ADVANCED_FACE('',(#47),#43,.T.);
#185=ADVANCED_FACE('',(#48,#31,#32),#38,.T.);
#186=ADVANCED_FACE('',(#49,#33,#34),#39,.T.);
#187=ADVANCED_FACE('',(#50),#178,.F.);
#188=ADVANCED_FACE('',(#51,#35),#40,.T.);
#189=ADVANCED_FACE('',(#52),#179,.F.);
#190=ADVANCED_FACE('',(#53),#180,.T.);
#191=ADVANCED_FACE('',(#54,#36),#41,.F.);
#192=ADVANCED_FACE('',(#55,#37),#42,.T.);
#193=CLOSED_SHELL('',(#181,#182,#183,#184,#185,#186,#187,#188));
#194=CLOSED_SHELL('',(#189,#190,#191,#192));
#195=DERIVED_UNIT_ELEMENT(#199,1.);
#196=DERIVED_UNIT_ELEMENT(#414,-3.);
#197=DERIVED_UNIT_ELEMENT(#199,1.);
#198=DERIVED_UNIT_ELEMENT(#414,-3.);
#199=(
MASS_UNIT()
NAMED_UNIT(*)
SI_UNIT($,.GRAM.)
);
#200=DERIVED_UNIT((#195,#196));
#201=DERIVED_UNIT((#197,#198));
#202=MEASURE_REPRESENTATION_ITEM('density measure',
POSITIVE_RATIO_MEASURE(8.),#200);
#203=MEASURE_REPRESENTATION_ITEM('density measure',
POSITIVE_RATIO_MEASURE(8.),#201);
#204=PROPERTY_DEFINITION_REPRESENTATION(#214,#208);
#205=PROPERTY_DEFINITION_REPRESENTATION(#215,#209);
#206=PROPERTY_DEFINITION_REPRESENTATION(#216,#210);
#207=PROPERTY_DEFINITION_REPRESENTATION(#217,#211);
#208=REPRESENTATION('material name',(#212),#410);
#209=REPRESENTATION('density',(#202),#410);
#210=REPRESENTATION('material name',(#213),#411);
#211=REPRESENTATION('density',(#203),#411);
#212=DESCRIPTIVE_REPRESENTATION_ITEM('Stainless Steel, Austenitic',
'Stainless Steel, Austenitic');
#213=DESCRIPTIVE_REPRESENTATION_ITEM('Stainless Steel AISI 304',
'Stainless Steel AISI 304');
#214=PROPERTY_DEFINITION('material property','material name',#431);
#215=PROPERTY_DEFINITION('material property','density of part',#431);
#216=PROPERTY_DEFINITION('material property','material name',#432);
#217=PROPERTY_DEFINITION('material property','density of part',#432);
#218=PRESENTATION_STYLE_ASSIGNMENT((#220));
#219=PRESENTATION_STYLE_ASSIGNMENT((#221));
#220=SURFACE_STYLE_USAGE(.BOTH.,#226);
#221=SURFACE_STYLE_USAGE(.BOTH.,#227);
#222=SURFACE_STYLE_RENDERING_WITH_PROPERTIES($,#234,(#224));
#223=SURFACE_STYLE_RENDERING_WITH_PROPERTIES($,#235,(#225));
#224=SURFACE_STYLE_TRANSPARENT(0.);
#225=SURFACE_STYLE_TRANSPARENT(0.);
#226=SURFACE_SIDE_STYLE('',(#228,#222));
#227=SURFACE_SIDE_STYLE('',(#229,#223));
#228=SURFACE_STYLE_FILL_AREA(#230);
#229=SURFACE_STYLE_FILL_AREA(#231);
#230=FILL_AREA_STYLE('',(#232));
#231=FILL_AREA_STYLE('',(#233));
#232=FILL_AREA_STYLE_COLOUR('',#234);
#233=FILL_AREA_STYLE_COLOUR('',#235);
#234=COLOUR_RGB('',0.745098039215686,0.737254901960784,0.729411764705882);
#235=COLOUR_RGB('',0.745098039215686,0.737254901960784,0.729411764705882);
#236=DATE_TIME_ROLE('creation_date');
#237=DATE_TIME_ROLE('creation_date');
#238=DATE_TIME_ROLE('creation_date');
#239=APPLIED_DATE_AND_TIME_ASSIGNMENT(#242,#236,(#430));
#240=APPLIED_DATE_AND_TIME_ASSIGNMENT(#243,#237,(#431));
#241=APPLIED_DATE_AND_TIME_ASSIGNMENT(#244,#238,(#432));
#242=DATE_AND_TIME(#245,#248);
#243=DATE_AND_TIME(#246,#249);
#244=DATE_AND_TIME(#247,#250);
#245=CALENDAR_DATE(2018,4,10);
#246=CALENDAR_DATE(2014,18,11);
#247=CALENDAR_DATE(2015,24,3);
#248=LOCAL_TIME(0,0,0.,#251);
#249=LOCAL_TIME(0,0,0.,#252);
#250=LOCAL_TIME(0,0,0.,#253);
#251=COORDINATED_UNIVERSAL_TIME_OFFSET(0,0,.BEHIND.);
#252=COORDINATED_UNIVERSAL_TIME_OFFSET(0,0,.BEHIND.);
#253=COORDINATED_UNIVERSAL_TIME_OFFSET(0,0,.BEHIND.);
#254=AXIS2_PLACEMENT_3D('placement',#354,#285,#286);
#255=AXIS2_PLACEMENT_3D('placement',#355,#287,#288);
#256=AXIS2_PLACEMENT_3D('',#356,#289,#290);
#257=AXIS2_PLACEMENT_3D('',#358,#291,#292);
#258=AXIS2_PLACEMENT_3D('',#361,#294,#295);
#259=AXIS2_PLACEMENT_3D('',#362,#296,#297);
#260=AXIS2_PLACEMENT_3D('',#364,#298,#299);
#261=AXIS2_PLACEMENT_3D('',#367,#301,#302);
#262=AXIS2_PLACEMENT_3D('',#368,#303,#304);
#263=AXIS2_PLACEMENT_3D('',#370,#305,#306);
#264=AXIS2_PLACEMENT_3D('',#373,#308,#309);
#265=AXIS2_PLACEMENT_3D('',#374,#310,#311);
#266=AXIS2_PLACEMENT_3D('',#376,#312,#313);
#267=AXIS2_PLACEMENT_3D('',#378,#315,#316);
#268=AXIS2_PLACEMENT_3D('',#379,#317,#318);
#269=AXIS2_PLACEMENT_3D('',#381,#319,#320);
#270=AXIS2_PLACEMENT_3D('',#382,#321,#322);
#271=AXIS2_PLACEMENT_3D('',#385,#324,#325);
#272=AXIS2_PLACEMENT_3D('',#386,#326,#327);
#273=AXIS2_PLACEMENT_3D('placement',#387,#328,#329);
#274=AXIS2_PLACEMENT_3D('',#388,#330,#331);
#275=AXIS2_PLACEMENT_3D('',#390,#332,#333);
#276=AXIS2_PLACEMENT_3D('',#393,#335,#336);
#277=AXIS2_PLACEMENT_3D('',#394,#337,#338);
#278=AXIS2_PLACEMENT_3D('',#396,#339,#340);
#279=AXIS2_PLACEMENT_3D('',#399,#342,#343);
#280=AXIS2_PLACEMENT_3D('',#400,#344,#345);
#281=AXIS2_PLACEMENT_3D('',#401,#346,#347);
#282=AXIS2_PLACEMENT_3D('',#402,#348,#349);
#283=AXIS2_PLACEMENT_3D('',#403,#350,#351);
#284=AXIS2_PLACEMENT_3D('',#404,#352,#353);
#285=DIRECTION('axis',(0.,0.,1.));
#286=DIRECTION('refdir',(1.,0.,0.));
#287=DIRECTION('axis',(0.,0.,1.));
#288=DIRECTION('refdir',(1.,0.,0.));
#289=DIRECTION('center_axis',(0.,-1.,0.));
#290=DIRECTION('ref_axis',(1.,0.,0.));
#291=DIRECTION('center_axis',(0.,-1.,0.));
#292=DIRECTION('ref_axis',(1.,0.,0.));
#293=DIRECTION('',(0.,-1.,0.));
#294=DIRECTION('center_axis',(0.,1.,0.));
#295=DIRECTION('ref_axis',(1.,0.,0.));
#296=DIRECTION('center_axis',(0.,-1.,0.));
#297=DIRECTION('ref_axis',(1.,0.,0.));
#298=DIRECTION('center_axis',(0.,-1.,0.));
#299=DIRECTION('ref_axis',(1.,0.,0.));
#300=DIRECTION('',(0.,-1.,0.));
#301=DIRECTION('center_axis',(0.,1.,0.));
#302=DIRECTION('ref_axis',(1.,0.,0.));
#303=DIRECTION('center_axis',(0.,1.,0.));
#304=DIRECTION('ref_axis',(-1.,0.,0.));
#305=DIRECTION('center_axis',(0.,1.,0.));
#306=DIRECTION('ref_axis',(1.,0.,0.));
#307=DIRECTION('',(0.,-1.,0.));
#308=DIRECTION('center_axis',(0.,1.,0.));
#309=DIRECTION('ref_axis',(1.,0.,0.));
#310=DIRECTION('center_axis',(0.,-1.,0.));
#311=DIRECTION('ref_axis',(-1.,0.,0.));
#312=DIRECTION('center_axis',(0.,1.,0.));
#313=DIRECTION('ref_axis',(1.,0.,0.));
#314=DIRECTION('',(0.965925826289068,-0.258819045102521,-1.18291797137867E-16));
#315=DIRECTION('center_axis',(0.,1.,0.));
#316=DIRECTION('ref_axis',(0.,0.,1.));
#317=DIRECTION('center_axis',(0.,-1.,0.));
#318=DIRECTION('ref_axis',(0.,0.,-1.));
#319=DIRECTION('center_axis',(0.,1.,0.));
#320=DIRECTION('ref_axis',(1.,0.,0.));
#321=DIRECTION('center_axis',(0.,1.,0.));
#322=DIRECTION('ref_axis',(-1.,0.,0.));
#323=DIRECTION('',(0.,-1.,0.));
#324=DIRECTION('center_axis',(0.,1.,0.));
#325=DIRECTION('ref_axis',(1.,0.,0.));
#326=DIRECTION('center_axis',(0.,-1.,0.));
#327=DIRECTION('ref_axis',(0.,0.,-1.));
#328=DIRECTION('axis',(0.,0.,1.));
#329=DIRECTION('refdir',(1.,0.,0.));
#330=DIRECTION('center_axis',(0.,0.,-1.));
#331=DIRECTION('ref_axis',(-1.,0.,0.));
#332=DIRECTION('center_axis',(0.,0.,-1.));
#333=DIRECTION('ref_axis',(-1.,0.,0.));
#334=DIRECTION('',(0.,0.,-1.));
#335=DIRECTION('center_axis',(0.,0.,1.));
#336=DIRECTION('ref_axis',(-1.,0.,0.));
#337=DIRECTION('center_axis',(0.,0.,-1.));
#338=DIRECTION('ref_axis',(-1.,0.,0.));
#339=DIRECTION('center_axis',(0.,0.,-1.));
#340=DIRECTION('ref_axis',(-1.,0.,0.));
#341=DIRECTION('',(0.,0.,1.));
#342=DIRECTION('center_axis',(0.,0.,-1.));
#343=DIRECTION('ref_axis',(-1.,0.,0.));
#344=DIRECTION('center_axis',(0.,0.,1.));
#345=DIRECTION('ref_axis',(1.,0.,0.));
#346=DIRECTION('center_axis',(0.,0.,1.));
#347=DIRECTION('ref_axis',(1.,0.,0.));
#348=DIRECTION('',(2.46598906915801E-32,-1.,-7.70371977754894E-34));
#349=DIRECTION('',(1.,2.46598906915801E-32,1.92592994438724E-34));
#350=DIRECTION('',(-1.92592994438724E-34,-4.74932219082301E-66,1.));
#351=DIRECTION('',(1.,0.,1.92592994438724E-34));
#352=DIRECTION('',(-6.14604870338731E-33,-1.,-1.23259516440783E-32));
#353=DIRECTION('',(1.,-6.14604870338731E-33,1.92592994438724E-34));
#354=CARTESIAN_POINT('',(0.,0.,0.));
#355=CARTESIAN_POINT('',(0.,0.,0.));
#356=CARTESIAN_POINT('Origin',(0.,5.,-10.));
#357=CARTESIAN_POINT('',(-3.,5.,-10.));
#358=CARTESIAN_POINT('Origin',(0.,5.,-10.));
#359=CARTESIAN_POINT('',(-3.,2.5,-10.));
#360=CARTESIAN_POINT('',(-3.,5.,-10.));
#361=CARTESIAN_POINT('Origin',(0.,2.5,-10.));
#362=CARTESIAN_POINT('Origin',(0.,5.,10.));
#363=CARTESIAN_POINT('',(-3.,5.,10.));
#364=CARTESIAN_POINT('Origin',(0.,5.,10.));
#365=CARTESIAN_POINT('',(-3.,2.5,10.));
#366=CARTESIAN_POINT('',(-3.,5.,10.));
#367=CARTESIAN_POINT('Origin',(0.,2.5,10.));
#368=CARTESIAN_POINT('Origin',(0.,1.5,0.));
#369=CARTESIAN_POINT('',(27.5,3.,-3.36777869765522E-15));
#370=CARTESIAN_POINT('Origin',(0.,3.,0.));
#371=CARTESIAN_POINT('',(27.5,0.,-3.36777869765522E-15));
#372=CARTESIAN_POINT('',(27.5,1.5,-3.36777869765522E-15));
#373=CARTESIAN_POINT('Origin',(0.,0.,0.));
#374=CARTESIAN_POINT('Origin',(0.,4.,0.));
#375=CARTESIAN_POINT('',(20.0358983848622,5.,-2.45368988250632E-15));
#376=CARTESIAN_POINT('Origin',(0.,5.,0.));
#377=CARTESIAN_POINT('',(23.7679491924311,4.,-2.91073429008077E-15));
#378=CARTESIAN_POINT('Origin',(0.,5.,0.));
#379=CARTESIAN_POINT('Origin',(-20.6,2.5,0.));
#380=CARTESIAN_POINT('',(20.6,2.5,-2.52277240624355E-15));
#381=CARTESIAN_POINT('Origin',(0.,2.5,0.));
#382=CARTESIAN_POINT('Origin',(0.,1.25,0.));
#383=CARTESIAN_POINT('',(20.6,0.,-2.52277240624355E-15));
#384=CARTESIAN_POINT('',(20.6,1.25,-2.52277240624355E-15));
#385=CARTESIAN_POINT('Origin',(0.,0.,0.));
#386=CARTESIAN_POINT('Origin',(-27.5,0.,0.));
#387=CARTESIAN_POINT('',(0.,0.,0.));
#388=CARTESIAN_POINT('Origin',(0.,0.,0.));
#389=CARTESIAN_POINT('',(2.,2.44929359829471E-16,0.));
#390=CARTESIAN_POINT('Origin',(0.,0.,0.));
#391=CARTESIAN_POINT('',(2.,2.44929359829471E-16,-120.));
#392=CARTESIAN_POINT('',(2.,-2.44929359829471E-16,0.));
#393=CARTESIAN_POINT('Origin',(0.,0.,-120.));
#394=CARTESIAN_POINT('Origin',(0.,0.,0.));
#395=CARTESIAN_POINT('',(3.,3.67394039744206E-16,-120.));
#396=CARTESIAN_POINT('Origin',(0.,0.,-120.));
#397=CARTESIAN_POINT('',(3.,3.67394039744206E-16,0.));
#398=CARTESIAN_POINT('',(3.,-3.67394039744206E-16,0.));
#399=CARTESIAN_POINT('Origin',(0.,0.,0.));
#400=CARTESIAN_POINT('Origin',(-3.39011454596783E-16,7.70988211545247E-17,
-120.));
#401=CARTESIAN_POINT('Origin',(-3.39011454596783E-16,7.70988211545247E-17,
0.));
#402=CARTESIAN_POINT('',(-62.1588809368652,-83.1566567414821,13.676403701685));
#403=CARTESIAN_POINT('',(-62.1588809368651,-38.1566567414821,3.67640370168502));
#404=CARTESIAN_POINT('',(-62.1588809368651,-113.156656741482,-6.32359629831498));
#405=UNCERTAINTY_MEASURE_WITH_UNIT(LENGTH_MEASURE(0.01),#413,
'DISTANCE_ACCURACY_VALUE',
'Maximum model space distance between geometric entities at asserted c
onnectivities');
#406=UNCERTAINTY_MEASURE_WITH_UNIT(LENGTH_MEASURE(0.01),#413,
'DISTANCE_ACCURACY_VALUE',
'Maximum model space distance between geometric entities at asserted c
onnectivities');
#407=UNCERTAINTY_MEASURE_WITH_UNIT(LENGTH_MEASURE(0.01),#413,
'DISTANCE_ACCURACY_VALUE',
'Maximum model space distance between geometric entities at asserted c
onnectivities');
#408=UNCERTAINTY_MEASURE_WITH_UNIT(LENGTH_MEASURE(0.01),#413,
'DISTANCE_ACCURACY_VALUE',
'Maximum model space distance between geometric entities at asserted c
onnectivities');
#409=(
GEOMETRIC_REPRESENTATION_CONTEXT(3)
GLOBAL_UNCERTAINTY_ASSIGNED_CONTEXT((#405))
GLOBAL_UNIT_ASSIGNED_CONTEXT((#413,#415,#416))
REPRESENTATION_CONTEXT('','3D')
);
#410=(
GEOMETRIC_REPRESENTATION_CONTEXT(3)
GLOBAL_UNCERTAINTY_ASSIGNED_CONTEXT((#406))
GLOBAL_UNIT_ASSIGNED_CONTEXT((#413,#415,#416))
REPRESENTATION_CONTEXT('','3D')
);
#411=(
GEOMETRIC_REPRESENTATION_CONTEXT(3)
GLOBAL_UNCERTAINTY_ASSIGNED_CONTEXT((#407))
GLOBAL_UNIT_ASSIGNED_CONTEXT((#413,#415,#416))
REPRESENTATION_CONTEXT('','3D')
);
#412=(
GEOMETRIC_REPRESENTATION_CONTEXT(3)
GLOBAL_UNCERTAINTY_ASSIGNED_CONTEXT((#408))
GLOBAL_UNIT_ASSIGNED_CONTEXT((#413,#415,#416))
REPRESENTATION_CONTEXT('','3D')
);
#413=(
LENGTH_UNIT()
NAMED_UNIT(*)
SI_UNIT(.MILLI.,.METRE.)
);
#414=(
LENGTH_UNIT()
NAMED_UNIT(*)
SI_UNIT(.CENTI.,.METRE.)
);
#415=(
NAMED_UNIT(*)
PLANE_ANGLE_UNIT()
SI_UNIT($,.RADIAN.)
);
#416=(
NAMED_UNIT(*)
SI_UNIT($,.STERADIAN.)
SOLID_ANGLE_UNIT()
);
#417=SHAPE_DEFINITION_REPRESENTATION(#420,#426);
#418=SHAPE_DEFINITION_REPRESENTATION(#421,#427);
#419=SHAPE_DEFINITION_REPRESENTATION(#422,#428);
#420=PRODUCT_DEFINITION_SHAPE('',$,#430);
#421=PRODUCT_DEFINITION_SHAPE('',$,#431);
#422=PRODUCT_DEFINITION_SHAPE('',$,#432);
#423=PRODUCT_DEFINITION_SHAPE($,$,#20);
#424=PRODUCT_DEFINITION_SHAPE($,$,#21);
#425=PRODUCT_DEFINITION_SHAPE($,$,#22);
#426=SHAPE_REPRESENTATION('',(#254,#282,#283,#284),#409);
#427=SHAPE_REPRESENTATION('',(#255),#410);
#428=SHAPE_REPRESENTATION('',(#273),#411);
#429=PRODUCT_DEFINITION_CONTEXT('part definition',#440,'design');
#430=PRODUCT_DEFINITION('FL-LF2-6MM-40KF','FL-LF2-6MM-40KF',#433,#429);
#431=PRODUCT_DEFINITION('FL-40KF','FL-40KF',#434,#429);
#432=PRODUCT_DEFINITION('6mm tube for tube end version',
'6mm tube for tube end version',#435,#429);
#433=PRODUCT_DEFINITION_FORMATION('',$,#442);
#434=PRODUCT_DEFINITION_FORMATION('',$,#443);
#435=PRODUCT_DEFINITION_FORMATION('',$,#444);
#436=PRODUCT_RELATED_PRODUCT_CATEGORY('FL-LF2-6MM-40KF',
'FL-LF2-6MM-40KF',(#442));
#437=PRODUCT_RELATED_PRODUCT_CATEGORY('FL-40KF','FL-40KF',(#443));
#438=PRODUCT_RELATED_PRODUCT_CATEGORY('6mm tube for tube end version',
'6mm tube for tube end version',(#444));
#439=APPLICATION_PROTOCOL_DEFINITION('international standard',
'automotive_design',2009,#440);
#440=APPLICATION_CONTEXT(
'Core Data for Automotive Mechanical Design Process');
#441=PRODUCT_CONTEXT('part definition',#440,'mechanical');
#442=PRODUCT('FL-LF2-6MM-40KF','FL-LF2-6MM-40KF',$,(#441));
#443=PRODUCT('FL-40KF','FL-40KF',$,(#441));
#444=PRODUCT('6mm tube for tube end version',
'6mm tube for tube end version',$,(#441));
ENDSEC;
END-ISO-10303-21;
