ISO-10303-21;
HEADER;
/* Generated by software containing ST-Developer
 * from STEP Tools, Inc. (www.steptools.com) 
 */

FILE_DESCRIPTION(
/* description */ (''),
/* implementation_level */ '2;1');

FILE_NAME(
/* name */ 
'G:\\FLANGES & FITTINGS\\LIQUID FEEDTHROUGHS SECTION 3.5\\METRIC TUBES
  OR FITTINGS\\STEP files\\FL-LF1-6MM-25KF.stp',
/* time_stamp */ '2020-11-23T08:18:34+00:00',
/* author */ ('Paul'),
/* organization */ (''),
/* preprocessor_version */ 'ST-DEVELOPER v18.1',
/* originating_system */ 'Autodesk Inventor 2021',
/* authorisation */ '');

FILE_SCHEMA (('AUTOMOTIVE_DESIGN { 1 0 10303 214 3 1 1 }'));
ENDSEC;

DATA;
#10=MECHANICAL_DESIGN_GEOMETRIC_PRESENTATION_REPRESENTATION('',(#24,#25),
#365);
#11=ITEM_DEFINED_TRANSFORMATION($,$,#228,#252);
#12=ITEM_DEFINED_TRANSFORMATION($,$,#237,#253);
#13=(
REPRESENTATION_RELATIONSHIP($,$,#379,#378)
REPRESENTATION_RELATIONSHIP_WITH_TRANSFORMATION(#11)
SHAPE_REPRESENTATION_RELATIONSHIP()
);
#14=(
REPRESENTATION_RELATIONSHIP($,$,#380,#378)
REPRESENTATION_RELATIONSHIP_WITH_TRANSFORMATION(#12)
SHAPE_REPRESENTATION_RELATIONSHIP()
);
#15=CONTEXT_DEPENDENT_SHAPE_REPRESENTATION(#13,#376);
#16=CONTEXT_DEPENDENT_SHAPE_REPRESENTATION(#14,#377);
#17=NEXT_ASSEMBLY_USAGE_OCCURRENCE('6mm tube for tube end version:1',
'6mm tube for tube end version:1','6mm tube for tube end version:1',#382,
#383,'6mm tube for tube end version:1');
#18=NEXT_ASSEMBLY_USAGE_OCCURRENCE('FL-25KF:1','FL-25KF:1','FL-25KF:1',
#382,#384,'FL-25KF:1');
#19=CONICAL_SURFACE('',#244,16.2679491924311,1.30899693899575);
#20=SHAPE_REPRESENTATION_RELATIONSHIP('SRR','None',#379,#22);
#21=SHAPE_REPRESENTATION_RELATIONSHIP('SRR','None',#380,#23);
#22=ADVANCED_BREP_SHAPE_REPRESENTATION('',(#26),#363);
#23=ADVANCED_BREP_SHAPE_REPRESENTATION('',(#27),#364);
#24=STYLED_ITEM('',(#191),#26);
#25=STYLED_ITEM('',(#192),#27);
#26=MANIFOLD_SOLID_BREP('Solid1',#166);
#27=MANIFOLD_SOLID_BREP('Solid1',#167);
#28=FACE_BOUND('',#52,.T.);
#29=FACE_BOUND('',#54,.T.);
#30=FACE_BOUND('',#59,.T.);
#31=FACE_BOUND('',#61,.T.);
#32=FACE_BOUND('',#64,.T.);
#33=PLANE('',#235);
#34=PLANE('',#236);
#35=PLANE('',#246);
#36=PLANE('',#247);
#37=PLANE('',#251);
#38=FACE_OUTER_BOUND('',#49,.T.);
#39=FACE_OUTER_BOUND('',#50,.T.);
#40=FACE_OUTER_BOUND('',#51,.T.);
#41=FACE_OUTER_BOUND('',#53,.T.);
#42=FACE_OUTER_BOUND('',#55,.T.);
#43=FACE_OUTER_BOUND('',#56,.T.);
#44=FACE_OUTER_BOUND('',#57,.T.);
#45=FACE_OUTER_BOUND('',#58,.T.);
#46=FACE_OUTER_BOUND('',#60,.T.);
#47=FACE_OUTER_BOUND('',#62,.T.);
#48=FACE_OUTER_BOUND('',#63,.T.);
#49=EDGE_LOOP('',(#116,#117,#118,#119));
#50=EDGE_LOOP('',(#120,#121,#122,#123));
#51=EDGE_LOOP('',(#124));
#52=EDGE_LOOP('',(#125));
#53=EDGE_LOOP('',(#126));
#54=EDGE_LOOP('',(#127));
#55=EDGE_LOOP('',(#128,#129,#130,#131));
#56=EDGE_LOOP('',(#132,#133,#134,#135));
#57=EDGE_LOOP('',(#136,#137,#138,#139));
#58=EDGE_LOOP('',(#140));
#59=EDGE_LOOP('',(#141));
#60=EDGE_LOOP('',(#142));
#61=EDGE_LOOP('',(#143));
#62=EDGE_LOOP('',(#144,#145,#146,#147));
#63=EDGE_LOOP('',(#148));
#64=EDGE_LOOP('',(#149));
#65=LINE('',#320,#71);
#66=LINE('',#326,#72);
#67=LINE('',#335,#73);
#68=LINE('',#341,#74);
#69=LINE('',#346,#75);
#70=LINE('',#353,#76);
#71=VECTOR('',#262,2.);
#72=VECTOR('',#269,3.);
#73=VECTOR('',#282,3.175);
#74=VECTOR('',#289,20.);
#75=VECTOR('',#296,16.2679491924311);
#76=VECTOR('',#305,13.1);
#77=CIRCLE('',#230,2.);
#78=CIRCLE('',#231,2.);
#79=CIRCLE('',#233,3.);
#80=CIRCLE('',#234,3.);
#81=CIRCLE('',#239,3.175);
#82=CIRCLE('',#240,3.175);
#83=CIRCLE('',#242,20.);
#84=CIRCLE('',#243,20.);
#85=CIRCLE('',#245,12.5358983848622);
#86=CIRCLE('',#248,13.1);
#87=CIRCLE('',#250,13.1);
#88=VERTEX_POINT('',#317);
#89=VERTEX_POINT('',#319);
#90=VERTEX_POINT('',#323);
#91=VERTEX_POINT('',#325);
#92=VERTEX_POINT('',#332);
#93=VERTEX_POINT('',#334);
#94=VERTEX_POINT('',#338);
#95=VERTEX_POINT('',#340);
#96=VERTEX_POINT('',#344);
#97=VERTEX_POINT('',#349);
#98=VERTEX_POINT('',#352);
#99=EDGE_CURVE('',#88,#88,#77,.T.);
#100=EDGE_CURVE('',#88,#89,#65,.T.);
#101=EDGE_CURVE('',#89,#89,#78,.T.);
#102=EDGE_CURVE('',#90,#90,#79,.T.);
#103=EDGE_CURVE('',#90,#91,#66,.T.);
#104=EDGE_CURVE('',#91,#91,#80,.T.);
#105=EDGE_CURVE('',#92,#92,#81,.T.);
#106=EDGE_CURVE('',#92,#93,#67,.T.);
#107=EDGE_CURVE('',#93,#93,#82,.T.);
#108=EDGE_CURVE('',#94,#94,#83,.T.);
#109=EDGE_CURVE('',#94,#95,#68,.T.);
#110=EDGE_CURVE('',#95,#95,#84,.T.);
#111=EDGE_CURVE('',#96,#96,#85,.T.);
#112=EDGE_CURVE('',#96,#94,#69,.T.);
#113=EDGE_CURVE('',#97,#97,#86,.T.);
#114=EDGE_CURVE('',#97,#98,#70,.T.);
#115=EDGE_CURVE('',#98,#98,#87,.T.);
#116=ORIENTED_EDGE('',*,*,#99,.F.);
#117=ORIENTED_EDGE('',*,*,#100,.T.);
#118=ORIENTED_EDGE('',*,*,#101,.F.);
#119=ORIENTED_EDGE('',*,*,#100,.F.);
#120=ORIENTED_EDGE('',*,*,#102,.F.);
#121=ORIENTED_EDGE('',*,*,#103,.T.);
#122=ORIENTED_EDGE('',*,*,#104,.T.);
#123=ORIENTED_EDGE('',*,*,#103,.F.);
#124=ORIENTED_EDGE('',*,*,#102,.T.);
#125=ORIENTED_EDGE('',*,*,#101,.T.);
#126=ORIENTED_EDGE('',*,*,#104,.F.);
#127=ORIENTED_EDGE('',*,*,#99,.T.);
#128=ORIENTED_EDGE('',*,*,#105,.F.);
#129=ORIENTED_EDGE('',*,*,#106,.T.);
#130=ORIENTED_EDGE('',*,*,#107,.F.);
#131=ORIENTED_EDGE('',*,*,#106,.F.);
#132=ORIENTED_EDGE('',*,*,#108,.F.);
#133=ORIENTED_EDGE('',*,*,#109,.T.);
#134=ORIENTED_EDGE('',*,*,#110,.T.);
#135=ORIENTED_EDGE('',*,*,#109,.F.);
#136=ORIENTED_EDGE('',*,*,#111,.F.);
#137=ORIENTED_EDGE('',*,*,#112,.T.);
#138=ORIENTED_EDGE('',*,*,#108,.T.);
#139=ORIENTED_EDGE('',*,*,#112,.F.);
#140=ORIENTED_EDGE('',*,*,#111,.T.);
#141=ORIENTED_EDGE('',*,*,#105,.T.);
#142=ORIENTED_EDGE('',*,*,#113,.F.);
#143=ORIENTED_EDGE('',*,*,#107,.T.);
#144=ORIENTED_EDGE('',*,*,#113,.T.);
#145=ORIENTED_EDGE('',*,*,#114,.T.);
#146=ORIENTED_EDGE('',*,*,#115,.F.);
#147=ORIENTED_EDGE('',*,*,#114,.F.);
#148=ORIENTED_EDGE('',*,*,#110,.F.);
#149=ORIENTED_EDGE('',*,*,#115,.T.);
#150=CYLINDRICAL_SURFACE('',#229,2.);
#151=CYLINDRICAL_SURFACE('',#232,3.);
#152=CYLINDRICAL_SURFACE('',#238,3.175);
#153=CYLINDRICAL_SURFACE('',#241,20.);
#154=CYLINDRICAL_SURFACE('',#249,13.1);
#155=ADVANCED_FACE('',(#38),#150,.F.);
#156=ADVANCED_FACE('',(#39),#151,.T.);
#157=ADVANCED_FACE('',(#40,#28),#33,.F.);
#158=ADVANCED_FACE('',(#41,#29),#34,.T.);
#159=ADVANCED_FACE('',(#42),#152,.F.);
#160=ADVANCED_FACE('',(#43),#153,.T.);
#161=ADVANCED_FACE('',(#44),#19,.T.);
#162=ADVANCED_FACE('',(#45,#30),#35,.T.);
#163=ADVANCED_FACE('',(#46,#31),#36,.T.);
#164=ADVANCED_FACE('',(#47),#154,.F.);
#165=ADVANCED_FACE('',(#48,#32),#37,.T.);
#166=CLOSED_SHELL('',(#155,#156,#157,#158));
#167=CLOSED_SHELL('',(#159,#160,#161,#162,#163,#164,#165));
#168=DERIVED_UNIT_ELEMENT(#172,1.);
#169=DERIVED_UNIT_ELEMENT(#367,-3.);
#170=DERIVED_UNIT_ELEMENT(#172,1.);
#171=DERIVED_UNIT_ELEMENT(#367,-3.);
#172=(
MASS_UNIT()
NAMED_UNIT(*)
SI_UNIT($,.GRAM.)
);
#173=DERIVED_UNIT((#168,#169));
#174=DERIVED_UNIT((#170,#171));
#175=MEASURE_REPRESENTATION_ITEM('density measure',
POSITIVE_RATIO_MEASURE(8.),#173);
#176=MEASURE_REPRESENTATION_ITEM('density measure',
POSITIVE_RATIO_MEASURE(8.),#174);
#177=PROPERTY_DEFINITION_REPRESENTATION(#187,#181);
#178=PROPERTY_DEFINITION_REPRESENTATION(#188,#182);
#179=PROPERTY_DEFINITION_REPRESENTATION(#189,#183);
#180=PROPERTY_DEFINITION_REPRESENTATION(#190,#184);
#181=REPRESENTATION('material name',(#185),#363);
#182=REPRESENTATION('density',(#175),#363);
#183=REPRESENTATION('material name',(#186),#364);
#184=REPRESENTATION('density',(#176),#364);
#185=DESCRIPTIVE_REPRESENTATION_ITEM('Stainless Steel AISI 304',
'Stainless Steel AISI 304');
#186=DESCRIPTIVE_REPRESENTATION_ITEM('Stainless Steel AISI 304',
'Stainless Steel AISI 304');
#187=PROPERTY_DEFINITION('material property','material name',#383);
#188=PROPERTY_DEFINITION('material property','density of part',#383);
#189=PROPERTY_DEFINITION('material property','material name',#384);
#190=PROPERTY_DEFINITION('material property','density of part',#384);
#191=PRESENTATION_STYLE_ASSIGNMENT((#193));
#192=PRESENTATION_STYLE_ASSIGNMENT((#194));
#193=SURFACE_STYLE_USAGE(.BOTH.,#199);
#194=SURFACE_STYLE_USAGE(.BOTH.,#200);
#195=SURFACE_STYLE_RENDERING_WITH_PROPERTIES($,#207,(#197));
#196=SURFACE_STYLE_RENDERING_WITH_PROPERTIES($,#208,(#198));
#197=SURFACE_STYLE_TRANSPARENT(0.);
#198=SURFACE_STYLE_TRANSPARENT(0.);
#199=SURFACE_SIDE_STYLE('',(#201,#195));
#200=SURFACE_SIDE_STYLE('',(#202,#196));
#201=SURFACE_STYLE_FILL_AREA(#203);
#202=SURFACE_STYLE_FILL_AREA(#204);
#203=FILL_AREA_STYLE('',(#205));
#204=FILL_AREA_STYLE('',(#206));
#205=FILL_AREA_STYLE_COLOUR('',#207);
#206=FILL_AREA_STYLE_COLOUR('',#208);
#207=COLOUR_RGB('',0.745098039215686,0.737254901960784,0.729411764705882);
#208=COLOUR_RGB('',0.745098039215686,0.737254901960784,0.729411764705882);
#209=DATE_TIME_ROLE('creation_date');
#210=DATE_TIME_ROLE('creation_date');
#211=DATE_TIME_ROLE('creation_date');
#212=APPLIED_DATE_AND_TIME_ASSIGNMENT(#215,#209,(#382));
#213=APPLIED_DATE_AND_TIME_ASSIGNMENT(#216,#210,(#383));
#214=APPLIED_DATE_AND_TIME_ASSIGNMENT(#217,#211,(#384));
#215=DATE_AND_TIME(#218,#221);
#216=DATE_AND_TIME(#219,#222);
#217=DATE_AND_TIME(#220,#223);
#218=CALENDAR_DATE(2018,4,10);
#219=CALENDAR_DATE(2015,24,3);
#220=CALENDAR_DATE(2014,18,11);
#221=LOCAL_TIME(0,0,0.,#224);
#222=LOCAL_TIME(0,0,0.,#225);
#223=LOCAL_TIME(0,0,0.,#226);
#224=COORDINATED_UNIVERSAL_TIME_OFFSET(0,0,.BEHIND.);
#225=COORDINATED_UNIVERSAL_TIME_OFFSET(0,0,.BEHIND.);
#226=COORDINATED_UNIVERSAL_TIME_OFFSET(0,0,.BEHIND.);
#227=AXIS2_PLACEMENT_3D('placement',#314,#254,#255);
#228=AXIS2_PLACEMENT_3D('placement',#315,#256,#257);
#229=AXIS2_PLACEMENT_3D('',#316,#258,#259);
#230=AXIS2_PLACEMENT_3D('',#318,#260,#261);
#231=AXIS2_PLACEMENT_3D('',#321,#263,#264);
#232=AXIS2_PLACEMENT_3D('',#322,#265,#266);
#233=AXIS2_PLACEMENT_3D('',#324,#267,#268);
#234=AXIS2_PLACEMENT_3D('',#327,#270,#271);
#235=AXIS2_PLACEMENT_3D('',#328,#272,#273);
#236=AXIS2_PLACEMENT_3D('',#329,#274,#275);
#237=AXIS2_PLACEMENT_3D('placement',#330,#276,#277);
#238=AXIS2_PLACEMENT_3D('',#331,#278,#279);
#239=AXIS2_PLACEMENT_3D('',#333,#280,#281);
#240=AXIS2_PLACEMENT_3D('',#336,#283,#284);
#241=AXIS2_PLACEMENT_3D('',#337,#285,#286);
#242=AXIS2_PLACEMENT_3D('',#339,#287,#288);
#243=AXIS2_PLACEMENT_3D('',#342,#290,#291);
#244=AXIS2_PLACEMENT_3D('',#343,#292,#293);
#245=AXIS2_PLACEMENT_3D('',#345,#294,#295);
#246=AXIS2_PLACEMENT_3D('',#347,#297,#298);
#247=AXIS2_PLACEMENT_3D('',#348,#299,#300);
#248=AXIS2_PLACEMENT_3D('',#350,#301,#302);
#249=AXIS2_PLACEMENT_3D('',#351,#303,#304);
#250=AXIS2_PLACEMENT_3D('',#354,#306,#307);
#251=AXIS2_PLACEMENT_3D('',#355,#308,#309);
#252=AXIS2_PLACEMENT_3D('',#356,#310,#311);
#253=AXIS2_PLACEMENT_3D('',#357,#312,#313);
#254=DIRECTION('axis',(0.,0.,1.));
#255=DIRECTION('refdir',(1.,0.,0.));
#256=DIRECTION('axis',(0.,0.,1.));
#257=DIRECTION('refdir',(1.,0.,0.));
#258=DIRECTION('center_axis',(0.,0.,-1.));
#259=DIRECTION('ref_axis',(-1.,0.,0.));
#260=DIRECTION('center_axis',(0.,0.,-1.));
#261=DIRECTION('ref_axis',(-1.,0.,0.));
#262=DIRECTION('',(0.,0.,-1.));
#263=DIRECTION('center_axis',(0.,0.,1.));
#264=DIRECTION('ref_axis',(-1.,0.,0.));
#265=DIRECTION('center_axis',(0.,0.,-1.));
#266=DIRECTION('ref_axis',(-1.,0.,0.));
#267=DIRECTION('center_axis',(0.,0.,-1.));
#268=DIRECTION('ref_axis',(-1.,0.,0.));
#269=DIRECTION('',(0.,0.,1.));
#270=DIRECTION('center_axis',(0.,0.,-1.));
#271=DIRECTION('ref_axis',(-1.,0.,0.));
#272=DIRECTION('center_axis',(0.,0.,1.));
#273=DIRECTION('ref_axis',(1.,0.,0.));
#274=DIRECTION('center_axis',(0.,0.,1.));
#275=DIRECTION('ref_axis',(1.,0.,0.));
#276=DIRECTION('axis',(0.,0.,1.));
#277=DIRECTION('refdir',(1.,0.,0.));
#278=DIRECTION('center_axis',(0.,-1.,0.));
#279=DIRECTION('ref_axis',(-1.,0.,0.));
#280=DIRECTION('center_axis',(0.,-1.,0.));
#281=DIRECTION('ref_axis',(-1.,0.,0.));
#282=DIRECTION('',(0.,-1.,0.));
#283=DIRECTION('center_axis',(0.,1.,0.));
#284=DIRECTION('ref_axis',(-1.,0.,0.));
#285=DIRECTION('center_axis',(0.,1.,0.));
#286=DIRECTION('ref_axis',(-1.,0.,0.));
#287=DIRECTION('center_axis',(0.,1.,0.));
#288=DIRECTION('ref_axis',(1.,0.,0.));
#289=DIRECTION('',(0.,-1.,0.));
#290=DIRECTION('center_axis',(0.,1.,0.));
#291=DIRECTION('ref_axis',(1.,0.,0.));
#292=DIRECTION('center_axis',(0.,-1.,0.));
#293=DIRECTION('ref_axis',(-1.,0.,0.));
#294=DIRECTION('center_axis',(0.,1.,0.));
#295=DIRECTION('ref_axis',(1.,0.,0.));
#296=DIRECTION('',(0.965925826289068,-0.258819045102521,-1.18291797137867E-16));
#297=DIRECTION('center_axis',(0.,1.,0.));
#298=DIRECTION('ref_axis',(0.,0.,1.));
#299=DIRECTION('center_axis',(0.,-1.,0.));
#300=DIRECTION('ref_axis',(0.,0.,-1.));
#301=DIRECTION('center_axis',(0.,1.,0.));
#302=DIRECTION('ref_axis',(1.,0.,0.));
#303=DIRECTION('center_axis',(0.,1.,0.));
#304=DIRECTION('ref_axis',(-1.,0.,0.));
#305=DIRECTION('',(0.,-1.,0.));
#306=DIRECTION('center_axis',(0.,1.,0.));
#307=DIRECTION('ref_axis',(1.,0.,0.));
#308=DIRECTION('center_axis',(0.,-1.,0.));
#309=DIRECTION('ref_axis',(0.,0.,-1.));
#310=DIRECTION('',(0.,-1.,0.));
#311=DIRECTION('',(1.,0.,0.));
#312=DIRECTION('',(0.,0.,1.));
#313=DIRECTION('',(1.,0.,0.));
#314=CARTESIAN_POINT('',(0.,0.,0.));
#315=CARTESIAN_POINT('',(0.,0.,0.));
#316=CARTESIAN_POINT('Origin',(0.,0.,0.));
#317=CARTESIAN_POINT('',(2.,2.44929359829471E-16,0.));
#318=CARTESIAN_POINT('Origin',(0.,0.,0.));
#319=CARTESIAN_POINT('',(2.,2.44929359829471E-16,-120.));
#320=CARTESIAN_POINT('',(2.,-2.44929359829471E-16,0.));
#321=CARTESIAN_POINT('Origin',(0.,0.,-120.));
#322=CARTESIAN_POINT('Origin',(0.,0.,0.));
#323=CARTESIAN_POINT('',(3.,3.67394039744206E-16,-120.));
#324=CARTESIAN_POINT('Origin',(0.,0.,-120.));
#325=CARTESIAN_POINT('',(3.,3.67394039744206E-16,0.));
#326=CARTESIAN_POINT('',(3.,-3.67394039744206E-16,0.));
#327=CARTESIAN_POINT('Origin',(0.,0.,0.));
#328=CARTESIAN_POINT('Origin',(-3.39011454596783E-16,7.70988211545247E-17,
-120.));
#329=CARTESIAN_POINT('Origin',(-3.39011454596783E-16,7.70988211545247E-17,
0.));
#330=CARTESIAN_POINT('',(0.,0.,0.));
#331=CARTESIAN_POINT('Origin',(0.,5.,0.));
#332=CARTESIAN_POINT('',(3.175,5.,-5.55111512312578E-16));
#333=CARTESIAN_POINT('Origin',(0.,5.,0.));
#334=CARTESIAN_POINT('',(3.175,2.5,-5.55111512312578E-16));
#335=CARTESIAN_POINT('',(3.175,5.,3.88825358729285E-16));
#336=CARTESIAN_POINT('Origin',(0.,2.5,0.));
#337=CARTESIAN_POINT('Origin',(0.,1.5,0.));
#338=CARTESIAN_POINT('',(20.,3.,-2.44929359829471E-15));
#339=CARTESIAN_POINT('Origin',(0.,3.,0.));
#340=CARTESIAN_POINT('',(20.,0.,-2.44929359829471E-15));
#341=CARTESIAN_POINT('',(20.,1.5,-2.44929359829471E-15));
#342=CARTESIAN_POINT('Origin',(0.,0.,0.));
#343=CARTESIAN_POINT('Origin',(0.,4.,0.));
#344=CARTESIAN_POINT('',(12.5358983848622,5.00000000000001,-1.5352047831458E-15));
#345=CARTESIAN_POINT('Origin',(0.,5.,0.));
#346=CARTESIAN_POINT('',(16.2679491924311,4.,-1.99224919072025E-15));
#347=CARTESIAN_POINT('Origin',(0.,5.,0.));
#348=CARTESIAN_POINT('Origin',(-13.1,2.5,0.));
#349=CARTESIAN_POINT('',(13.1,2.5,-1.60428730688303E-15));
#350=CARTESIAN_POINT('Origin',(0.,2.5,0.));
#351=CARTESIAN_POINT('Origin',(0.,1.25,0.));
#352=CARTESIAN_POINT('',(13.1,0.,-1.60428730688303E-15));
#353=CARTESIAN_POINT('',(13.1,1.25,-1.60428730688303E-15));
#354=CARTESIAN_POINT('Origin',(0.,0.,0.));
#355=CARTESIAN_POINT('Origin',(-20.,0.,0.));
#356=CARTESIAN_POINT('',(-62.1588809368651,-83.1566567414821,3.67640370168502));
#357=CARTESIAN_POINT('',(-62.1588809368651,-38.1566567414821,3.67640370168502));
#358=UNCERTAINTY_MEASURE_WITH_UNIT(LENGTH_MEASURE(0.01),#366,
'DISTANCE_ACCURACY_VALUE',
'Maximum model space distance between geometric entities at asserted c
onnectivities');
#359=UNCERTAINTY_MEASURE_WITH_UNIT(LENGTH_MEASURE(0.01),#366,
'DISTANCE_ACCURACY_VALUE',
'Maximum model space distance between geometric entities at asserted c
onnectivities');
#360=UNCERTAINTY_MEASURE_WITH_UNIT(LENGTH_MEASURE(0.01),#366,
'DISTANCE_ACCURACY_VALUE',
'Maximum model space distance between geometric entities at asserted c
onnectivities');
#361=UNCERTAINTY_MEASURE_WITH_UNIT(LENGTH_MEASURE(0.01),#366,
'DISTANCE_ACCURACY_VALUE',
'Maximum model space distance between geometric entities at asserted c
onnectivities');
#362=(
GEOMETRIC_REPRESENTATION_CONTEXT(3)
GLOBAL_UNCERTAINTY_ASSIGNED_CONTEXT((#358))
GLOBAL_UNIT_ASSIGNED_CONTEXT((#366,#368,#369))
REPRESENTATION_CONTEXT('','3D')
);
#363=(
GEOMETRIC_REPRESENTATION_CONTEXT(3)
GLOBAL_UNCERTAINTY_ASSIGNED_CONTEXT((#359))
GLOBAL_UNIT_ASSIGNED_CONTEXT((#366,#368,#369))
REPRESENTATION_CONTEXT('','3D')
);
#364=(
GEOMETRIC_REPRESENTATION_CONTEXT(3)
GLOBAL_UNCERTAINTY_ASSIGNED_CONTEXT((#360))
GLOBAL_UNIT_ASSIGNED_CONTEXT((#366,#368,#369))
REPRESENTATION_CONTEXT('','3D')
);
#365=(
GEOMETRIC_REPRESENTATION_CONTEXT(3)
GLOBAL_UNCERTAINTY_ASSIGNED_CONTEXT((#361))
GLOBAL_UNIT_ASSIGNED_CONTEXT((#366,#368,#369))
REPRESENTATION_CONTEXT('','3D')
);
#366=(
LENGTH_UNIT()
NAMED_UNIT(*)
SI_UNIT(.MILLI.,.METRE.)
);
#367=(
LENGTH_UNIT()
NAMED_UNIT(*)
SI_UNIT(.CENTI.,.METRE.)
);
#368=(
NAMED_UNIT(*)
PLANE_ANGLE_UNIT()
SI_UNIT($,.RADIAN.)
);
#369=(
NAMED_UNIT(*)
SI_UNIT($,.STERADIAN.)
SOLID_ANGLE_UNIT()
);
#370=SHAPE_DEFINITION_REPRESENTATION(#373,#378);
#371=SHAPE_DEFINITION_REPRESENTATION(#374,#379);
#372=SHAPE_DEFINITION_REPRESENTATION(#375,#380);
#373=PRODUCT_DEFINITION_SHAPE('',$,#382);
#374=PRODUCT_DEFINITION_SHAPE('',$,#383);
#375=PRODUCT_DEFINITION_SHAPE('',$,#384);
#376=PRODUCT_DEFINITION_SHAPE($,$,#17);
#377=PRODUCT_DEFINITION_SHAPE($,$,#18);
#378=SHAPE_REPRESENTATION('',(#227,#252,#253),#362);
#379=SHAPE_REPRESENTATION('',(#228),#363);
#380=SHAPE_REPRESENTATION('',(#237),#364);
#381=PRODUCT_DEFINITION_CONTEXT('part definition',#392,'design');
#382=PRODUCT_DEFINITION('FL-LF1-6MM-25KF','FL-LF1-6MM-25KF',#385,#381);
#383=PRODUCT_DEFINITION('6mm tube for tube end version',
'6mm tube for tube end version',#386,#381);
#384=PRODUCT_DEFINITION('FL-25KF','FL-25KF',#387,#381);
#385=PRODUCT_DEFINITION_FORMATION('',$,#394);
#386=PRODUCT_DEFINITION_FORMATION('',$,#395);
#387=PRODUCT_DEFINITION_FORMATION('',$,#396);
#388=PRODUCT_RELATED_PRODUCT_CATEGORY('FL-LF1-6MM-25KF',
'FL-LF1-6MM-25KF',(#394));
#389=PRODUCT_RELATED_PRODUCT_CATEGORY('6mm tube for tube end version',
'6mm tube for tube end version',(#395));
#390=PRODUCT_RELATED_PRODUCT_CATEGORY('FL-25KF','FL-25KF',(#396));
#391=APPLICATION_PROTOCOL_DEFINITION('international standard',
'automotive_design',2009,#392);
#392=APPLICATION_CONTEXT(
'Core Data for Automotive Mechanical Design Process');
#393=PRODUCT_CONTEXT('part definition',#392,'mechanical');
#394=PRODUCT('FL-LF1-6MM-25KF','FL-LF1-6MM-25KF',$,(#393));
#395=PRODUCT('6mm tube for tube end version',
'6mm tube for tube end version',$,(#393));
#396=PRODUCT('FL-25KF','FL-25KF',$,(#393));
ENDSEC;
END-ISO-10303-21;
