ISO-10303-21;
HEADER;
/* Generated by software containing ST-Developer
 * from STEP Tools, Inc. (www.steptools.com) 
 */

FILE_DESCRIPTION(
/* description */ (''),
/* implementation_level */ '2;1');

FILE_NAME(
/* name */ 
'G:\\FLANGES & FITTINGS\\BSP Adapters\\Step Files\\FL-50KF-1_2BSPM.stp',

/* time_stamp */ '2019-03-12T11:53:25+00:00',
/* author */ ('paul'),
/* organization */ (''),
/* preprocessor_version */ 'ST-DEVELOPER v17.2',
/* originating_system */ 'Autodesk Inventor 2019',
/* authorisation */ '');

FILE_SCHEMA (('AUTOMOTIVE_DESIGN { 1 0 10303 214 3 1 1 }'));
ENDSEC;

DATA;
#10=MECHANICAL_DESIGN_GEOMETRIC_PRESENTATION_REPRESENTATION('',(#13),#532);
#11=SHAPE_REPRESENTATION_RELATIONSHIP('SRR','None',#539,#12);
#12=ADVANCED_BREP_SHAPE_REPRESENTATION('',(#14),#531);
#13=STYLED_ITEM('',(#548),#14);
#14=MANIFOLD_SOLID_BREP('Solid1',#285);
#15=FACE_BOUND('',#74,.T.);
#16=FACE_BOUND('',#78,.T.);
#17=FACE_BOUND('',#81,.T.);
#18=FACE_BOUND('',#84,.T.);
#19=CYLINDRICAL_SURFACE('',#317,37.5);
#20=CYLINDRICAL_SURFACE('',#328,12.5);
#21=CYLINDRICAL_SURFACE('',#329,10.75);
#22=CYLINDRICAL_SURFACE('',#335,5.95);
#23=CYLINDRICAL_SURFACE('',#341,26.1);
#24=CIRCLE('',#312,10.75);
#25=CIRCLE('',#313,10.75);
#26=CIRCLE('',#314,12.5);
#27=CIRCLE('',#315,12.5);
#28=CIRCLE('',#316,12.5);
#29=CIRCLE('',#318,37.5);
#30=CIRCLE('',#319,37.5);
#31=CIRCLE('',#320,37.5);
#32=CIRCLE('',#321,37.5);
#33=CIRCLE('',#323,30.0358983848622);
#34=CIRCLE('',#324,30.0358983848622);
#35=CIRCLE('',#326,12.5);
#36=CIRCLE('',#327,12.5);
#37=CIRCLE('',#330,10.75);
#38=CIRCLE('',#331,10.75);
#39=CIRCLE('',#333,5.95000000000001);
#40=CIRCLE('',#334,5.95000000000001);
#41=CIRCLE('',#336,5.95);
#42=CIRCLE('',#337,5.95);
#43=CIRCLE('',#339,26.1);
#44=CIRCLE('',#340,26.1);
#45=CIRCLE('',#342,26.1);
#46=CIRCLE('',#343,26.1);
#47=CONICAL_SURFACE('',#311,11.625,0.785398163397448);
#48=CONICAL_SURFACE('',#322,33.7679491924311,1.30899693899575);
#49=ELLIPSE('',#307,17.6776695296637,12.5);
#50=ELLIPSE('',#310,17.6776695296637,12.5);
#51=FACE_OUTER_BOUND('',#66,.T.);
#52=FACE_OUTER_BOUND('',#67,.T.);
#53=FACE_OUTER_BOUND('',#68,.T.);
#54=FACE_OUTER_BOUND('',#69,.T.);
#55=FACE_OUTER_BOUND('',#70,.T.);
#56=FACE_OUTER_BOUND('',#71,.T.);
#57=FACE_OUTER_BOUND('',#72,.T.);
#58=FACE_OUTER_BOUND('',#73,.T.);
#59=FACE_OUTER_BOUND('',#75,.T.);
#60=FACE_OUTER_BOUND('',#76,.T.);
#61=FACE_OUTER_BOUND('',#77,.T.);
#62=FACE_OUTER_BOUND('',#79,.T.);
#63=FACE_OUTER_BOUND('',#80,.T.);
#64=FACE_OUTER_BOUND('',#82,.T.);
#65=FACE_OUTER_BOUND('',#83,.T.);
#66=EDGE_LOOP('',(#182,#183,#184,#185));
#67=EDGE_LOOP('',(#186,#187));
#68=EDGE_LOOP('',(#188,#189,#190,#191));
#69=EDGE_LOOP('',(#192,#193));
#70=EDGE_LOOP('',(#194,#195,#196,#197,#198,#199,#200,#201,#202));
#71=EDGE_LOOP('',(#203,#204,#205,#206,#207,#208));
#72=EDGE_LOOP('',(#209,#210,#211,#212,#213,#214));
#73=EDGE_LOOP('',(#215,#216));
#74=EDGE_LOOP('',(#217,#218));
#75=EDGE_LOOP('',(#219,#220,#221,#222,#223,#224,#225,#226,#227,#228,#229,
#230,#231));
#76=EDGE_LOOP('',(#232,#233,#234,#235,#236,#237));
#77=EDGE_LOOP('',(#238,#239));
#78=EDGE_LOOP('',(#240,#241));
#79=EDGE_LOOP('',(#242,#243,#244,#245,#246,#247));
#80=EDGE_LOOP('',(#248,#249));
#81=EDGE_LOOP('',(#250,#251));
#82=EDGE_LOOP('',(#252,#253,#254,#255,#256,#257));
#83=EDGE_LOOP('',(#258,#259));
#84=EDGE_LOOP('',(#260,#261));
#85=(
BOUNDED_CURVE()
B_SPLINE_CURVE(2,(#449,#450,#451),.UNSPECIFIED.,.F.,.F.)
B_SPLINE_CURVE_WITH_KNOTS((3,3),(0.,1.22474487139159),.UNSPECIFIED.)
CURVE()
GEOMETRIC_REPRESENTATION_ITEM()
RATIONAL_B_SPLINE_CURVE((1.,1.13636363636364,1.))
REPRESENTATION_ITEM('')
);
#86=(
BOUNDED_CURVE()
B_SPLINE_CURVE(2,(#462,#463,#464),.UNSPECIFIED.,.F.,.F.)
B_SPLINE_CURVE_WITH_KNOTS((3,3),(0.,1.22474487139159),.UNSPECIFIED.)
CURVE()
GEOMETRIC_REPRESENTATION_ITEM()
RATIONAL_B_SPLINE_CURVE((1.,1.13636363636364,1.))
REPRESENTATION_ITEM('')
);
#87=LINE('',#444,#100);
#88=LINE('',#446,#101);
#89=LINE('',#448,#102);
#90=LINE('',#457,#103);
#91=LINE('',#459,#104);
#92=LINE('',#461,#105);
#93=LINE('',#473,#106);
#94=LINE('',#483,#107);
#95=LINE('',#492,#108);
#96=LINE('',#499,#109);
#97=LINE('',#505,#110);
#98=LINE('',#513,#111);
#99=LINE('',#524,#112);
#100=VECTOR('',#349,10.);
#101=VECTOR('',#350,10.);
#102=VECTOR('',#351,10.);
#103=VECTOR('',#358,10.);
#104=VECTOR('',#359,10.);
#105=VECTOR('',#360,10.);
#106=VECTOR('',#371,11.625);
#107=VECTOR('',#384,37.5);
#108=VECTOR('',#395,33.7679491924311);
#109=VECTOR('',#404,12.5);
#110=VECTOR('',#411,10.75);
#111=VECTOR('',#420,5.95);
#112=VECTOR('',#433,26.1);
#113=VERTEX_POINT('',#442);
#114=VERTEX_POINT('',#443);
#115=VERTEX_POINT('',#445);
#116=VERTEX_POINT('',#447);
#117=VERTEX_POINT('',#455);
#118=VERTEX_POINT('',#456);
#119=VERTEX_POINT('',#458);
#120=VERTEX_POINT('',#460);
#121=VERTEX_POINT('',#468);
#122=VERTEX_POINT('',#469);
#123=VERTEX_POINT('',#472);
#124=VERTEX_POINT('',#478);
#125=VERTEX_POINT('',#479);
#126=VERTEX_POINT('',#482);
#127=VERTEX_POINT('',#484);
#128=VERTEX_POINT('',#488);
#129=VERTEX_POINT('',#489);
#130=VERTEX_POINT('',#494);
#131=VERTEX_POINT('',#495);
#132=VERTEX_POINT('',#501);
#133=VERTEX_POINT('',#502);
#134=VERTEX_POINT('',#507);
#135=VERTEX_POINT('',#508);
#136=VERTEX_POINT('',#512);
#137=VERTEX_POINT('',#514);
#138=VERTEX_POINT('',#518);
#139=VERTEX_POINT('',#519);
#140=VERTEX_POINT('',#523);
#141=VERTEX_POINT('',#525);
#142=EDGE_CURVE('',#113,#114,#87,.T.);
#143=EDGE_CURVE('',#115,#113,#88,.T.);
#144=EDGE_CURVE('',#116,#115,#89,.T.);
#145=EDGE_CURVE('',#114,#116,#85,.T.);
#146=EDGE_CURVE('',#115,#113,#49,.T.);
#147=EDGE_CURVE('',#117,#118,#90,.T.);
#148=EDGE_CURVE('',#117,#119,#91,.T.);
#149=EDGE_CURVE('',#120,#119,#92,.T.);
#150=EDGE_CURVE('',#118,#120,#86,.T.);
#151=EDGE_CURVE('',#119,#117,#50,.T.);
#152=EDGE_CURVE('',#121,#122,#24,.T.);
#153=EDGE_CURVE('',#122,#121,#25,.T.);
#154=EDGE_CURVE('',#122,#123,#93,.T.);
#155=EDGE_CURVE('',#123,#114,#26,.T.);
#156=EDGE_CURVE('',#116,#118,#27,.T.);
#157=EDGE_CURVE('',#120,#123,#28,.T.);
#158=EDGE_CURVE('',#124,#125,#29,.T.);
#159=EDGE_CURVE('',#125,#124,#30,.T.);
#160=EDGE_CURVE('',#125,#126,#94,.T.);
#161=EDGE_CURVE('',#126,#127,#31,.T.);
#162=EDGE_CURVE('',#127,#126,#32,.T.);
#163=EDGE_CURVE('',#128,#129,#33,.T.);
#164=EDGE_CURVE('',#129,#128,#34,.T.);
#165=EDGE_CURVE('',#129,#125,#95,.T.);
#166=EDGE_CURVE('',#130,#131,#35,.T.);
#167=EDGE_CURVE('',#131,#130,#36,.T.);
#168=EDGE_CURVE('',#123,#131,#96,.T.);
#169=EDGE_CURVE('',#132,#133,#37,.T.);
#170=EDGE_CURVE('',#133,#132,#38,.T.);
#171=EDGE_CURVE('',#133,#122,#97,.T.);
#172=EDGE_CURVE('',#134,#135,#39,.T.);
#173=EDGE_CURVE('',#135,#134,#40,.T.);
#174=EDGE_CURVE('',#135,#136,#98,.T.);
#175=EDGE_CURVE('',#137,#136,#41,.T.);
#176=EDGE_CURVE('',#136,#137,#42,.T.);
#177=EDGE_CURVE('',#138,#139,#43,.T.);
#178=EDGE_CURVE('',#139,#138,#44,.T.);
#179=EDGE_CURVE('',#139,#140,#99,.T.);
#180=EDGE_CURVE('',#141,#140,#45,.T.);
#181=EDGE_CURVE('',#140,#141,#46,.T.);
#182=ORIENTED_EDGE('',*,*,#142,.F.);
#183=ORIENTED_EDGE('',*,*,#143,.F.);
#184=ORIENTED_EDGE('',*,*,#144,.F.);
#185=ORIENTED_EDGE('',*,*,#145,.F.);
#186=ORIENTED_EDGE('',*,*,#146,.F.);
#187=ORIENTED_EDGE('',*,*,#143,.T.);
#188=ORIENTED_EDGE('',*,*,#147,.F.);
#189=ORIENTED_EDGE('',*,*,#148,.T.);
#190=ORIENTED_EDGE('',*,*,#149,.F.);
#191=ORIENTED_EDGE('',*,*,#150,.F.);
#192=ORIENTED_EDGE('',*,*,#151,.F.);
#193=ORIENTED_EDGE('',*,*,#148,.F.);
#194=ORIENTED_EDGE('',*,*,#152,.F.);
#195=ORIENTED_EDGE('',*,*,#153,.F.);
#196=ORIENTED_EDGE('',*,*,#154,.T.);
#197=ORIENTED_EDGE('',*,*,#155,.T.);
#198=ORIENTED_EDGE('',*,*,#145,.T.);
#199=ORIENTED_EDGE('',*,*,#156,.T.);
#200=ORIENTED_EDGE('',*,*,#150,.T.);
#201=ORIENTED_EDGE('',*,*,#157,.T.);
#202=ORIENTED_EDGE('',*,*,#154,.F.);
#203=ORIENTED_EDGE('',*,*,#158,.F.);
#204=ORIENTED_EDGE('',*,*,#159,.F.);
#205=ORIENTED_EDGE('',*,*,#160,.T.);
#206=ORIENTED_EDGE('',*,*,#161,.T.);
#207=ORIENTED_EDGE('',*,*,#162,.T.);
#208=ORIENTED_EDGE('',*,*,#160,.F.);
#209=ORIENTED_EDGE('',*,*,#163,.F.);
#210=ORIENTED_EDGE('',*,*,#164,.F.);
#211=ORIENTED_EDGE('',*,*,#165,.T.);
#212=ORIENTED_EDGE('',*,*,#159,.T.);
#213=ORIENTED_EDGE('',*,*,#158,.T.);
#214=ORIENTED_EDGE('',*,*,#165,.F.);
#215=ORIENTED_EDGE('',*,*,#163,.T.);
#216=ORIENTED_EDGE('',*,*,#164,.T.);
#217=ORIENTED_EDGE('',*,*,#166,.F.);
#218=ORIENTED_EDGE('',*,*,#167,.F.);
#219=ORIENTED_EDGE('',*,*,#142,.T.);
#220=ORIENTED_EDGE('',*,*,#155,.F.);
#221=ORIENTED_EDGE('',*,*,#168,.T.);
#222=ORIENTED_EDGE('',*,*,#167,.T.);
#223=ORIENTED_EDGE('',*,*,#166,.T.);
#224=ORIENTED_EDGE('',*,*,#168,.F.);
#225=ORIENTED_EDGE('',*,*,#157,.F.);
#226=ORIENTED_EDGE('',*,*,#149,.T.);
#227=ORIENTED_EDGE('',*,*,#151,.T.);
#228=ORIENTED_EDGE('',*,*,#147,.T.);
#229=ORIENTED_EDGE('',*,*,#156,.F.);
#230=ORIENTED_EDGE('',*,*,#144,.T.);
#231=ORIENTED_EDGE('',*,*,#146,.T.);
#232=ORIENTED_EDGE('',*,*,#169,.F.);
#233=ORIENTED_EDGE('',*,*,#170,.F.);
#234=ORIENTED_EDGE('',*,*,#171,.T.);
#235=ORIENTED_EDGE('',*,*,#153,.T.);
#236=ORIENTED_EDGE('',*,*,#152,.T.);
#237=ORIENTED_EDGE('',*,*,#171,.F.);
#238=ORIENTED_EDGE('',*,*,#169,.T.);
#239=ORIENTED_EDGE('',*,*,#170,.T.);
#240=ORIENTED_EDGE('',*,*,#172,.F.);
#241=ORIENTED_EDGE('',*,*,#173,.F.);
#242=ORIENTED_EDGE('',*,*,#172,.T.);
#243=ORIENTED_EDGE('',*,*,#174,.T.);
#244=ORIENTED_EDGE('',*,*,#175,.F.);
#245=ORIENTED_EDGE('',*,*,#176,.F.);
#246=ORIENTED_EDGE('',*,*,#174,.F.);
#247=ORIENTED_EDGE('',*,*,#173,.T.);
#248=ORIENTED_EDGE('',*,*,#177,.F.);
#249=ORIENTED_EDGE('',*,*,#178,.F.);
#250=ORIENTED_EDGE('',*,*,#175,.T.);
#251=ORIENTED_EDGE('',*,*,#176,.T.);
#252=ORIENTED_EDGE('',*,*,#177,.T.);
#253=ORIENTED_EDGE('',*,*,#179,.T.);
#254=ORIENTED_EDGE('',*,*,#180,.F.);
#255=ORIENTED_EDGE('',*,*,#181,.F.);
#256=ORIENTED_EDGE('',*,*,#179,.F.);
#257=ORIENTED_EDGE('',*,*,#178,.T.);
#258=ORIENTED_EDGE('',*,*,#162,.F.);
#259=ORIENTED_EDGE('',*,*,#161,.F.);
#260=ORIENTED_EDGE('',*,*,#180,.T.);
#261=ORIENTED_EDGE('',*,*,#181,.T.);
#262=PLANE('',#305);
#263=PLANE('',#306);
#264=PLANE('',#308);
#265=PLANE('',#309);
#266=PLANE('',#325);
#267=PLANE('',#332);
#268=PLANE('',#338);
#269=PLANE('',#344);
#270=ADVANCED_FACE('',(#51),#262,.F.);
#271=ADVANCED_FACE('',(#52),#263,.F.);
#272=ADVANCED_FACE('',(#53),#264,.F.);
#273=ADVANCED_FACE('',(#54),#265,.F.);
#274=ADVANCED_FACE('',(#55),#47,.T.);
#275=ADVANCED_FACE('',(#56),#19,.T.);
#276=ADVANCED_FACE('',(#57),#48,.T.);
#277=ADVANCED_FACE('',(#58,#15),#266,.T.);
#278=ADVANCED_FACE('',(#59),#20,.T.);
#279=ADVANCED_FACE('',(#60),#21,.T.);
#280=ADVANCED_FACE('',(#61,#16),#267,.T.);
#281=ADVANCED_FACE('',(#62),#22,.F.);
#282=ADVANCED_FACE('',(#63,#17),#268,.T.);
#283=ADVANCED_FACE('',(#64),#23,.F.);
#284=ADVANCED_FACE('',(#65,#18),#269,.T.);
#285=CLOSED_SHELL('',(#270,#271,#272,#273,#274,#275,#276,#277,#278,#279,
#280,#281,#282,#283,#284));
#286=DERIVED_UNIT_ELEMENT(#288,1.);
#287=DERIVED_UNIT_ELEMENT(#534,3.);
#288=(
MASS_UNIT()
NAMED_UNIT(*)
SI_UNIT($,.GRAM.)
);
#289=DERIVED_UNIT((#286,#287));
#290=MEASURE_REPRESENTATION_ITEM('density measure',
POSITIVE_RATIO_MEASURE(8.),#289);
#291=PROPERTY_DEFINITION_REPRESENTATION(#296,#293);
#292=PROPERTY_DEFINITION_REPRESENTATION(#297,#294);
#293=REPRESENTATION('material name',(#295),#531);
#294=REPRESENTATION('density',(#290),#531);
#295=DESCRIPTIVE_REPRESENTATION_ITEM('Stainless Steel AISI 304',
'Stainless Steel AISI 304');
#296=PROPERTY_DEFINITION('material property','material name',#541);
#297=PROPERTY_DEFINITION('material property','density of part',#541);
#298=DATE_TIME_ROLE('creation_date');
#299=APPLIED_DATE_AND_TIME_ASSIGNMENT(#300,#298,(#541));
#300=DATE_AND_TIME(#301,#302);
#301=CALENDAR_DATE(2014,20,11);
#302=LOCAL_TIME(11,0,44.,#303);
#303=COORDINATED_UNIVERSAL_TIME_OFFSET(0,0,.BEHIND.);
#304=AXIS2_PLACEMENT_3D('placement',#440,#345,#346);
#305=AXIS2_PLACEMENT_3D('',#441,#347,#348);
#306=AXIS2_PLACEMENT_3D('',#452,#352,#353);
#307=AXIS2_PLACEMENT_3D('',#453,#354,#355);
#308=AXIS2_PLACEMENT_3D('',#454,#356,#357);
#309=AXIS2_PLACEMENT_3D('',#465,#361,#362);
#310=AXIS2_PLACEMENT_3D('',#466,#363,#364);
#311=AXIS2_PLACEMENT_3D('',#467,#365,#366);
#312=AXIS2_PLACEMENT_3D('',#470,#367,#368);
#313=AXIS2_PLACEMENT_3D('',#471,#369,#370);
#314=AXIS2_PLACEMENT_3D('',#474,#372,#373);
#315=AXIS2_PLACEMENT_3D('',#475,#374,#375);
#316=AXIS2_PLACEMENT_3D('',#476,#376,#377);
#317=AXIS2_PLACEMENT_3D('',#477,#378,#379);
#318=AXIS2_PLACEMENT_3D('',#480,#380,#381);
#319=AXIS2_PLACEMENT_3D('',#481,#382,#383);
#320=AXIS2_PLACEMENT_3D('',#485,#385,#386);
#321=AXIS2_PLACEMENT_3D('',#486,#387,#388);
#322=AXIS2_PLACEMENT_3D('',#487,#389,#390);
#323=AXIS2_PLACEMENT_3D('',#490,#391,#392);
#324=AXIS2_PLACEMENT_3D('',#491,#393,#394);
#325=AXIS2_PLACEMENT_3D('',#493,#396,#397);
#326=AXIS2_PLACEMENT_3D('',#496,#398,#399);
#327=AXIS2_PLACEMENT_3D('',#497,#400,#401);
#328=AXIS2_PLACEMENT_3D('',#498,#402,#403);
#329=AXIS2_PLACEMENT_3D('',#500,#405,#406);
#330=AXIS2_PLACEMENT_3D('',#503,#407,#408);
#331=AXIS2_PLACEMENT_3D('',#504,#409,#410);
#332=AXIS2_PLACEMENT_3D('',#506,#412,#413);
#333=AXIS2_PLACEMENT_3D('',#509,#414,#415);
#334=AXIS2_PLACEMENT_3D('',#510,#416,#417);
#335=AXIS2_PLACEMENT_3D('',#511,#418,#419);
#336=AXIS2_PLACEMENT_3D('',#515,#421,#422);
#337=AXIS2_PLACEMENT_3D('',#516,#423,#424);
#338=AXIS2_PLACEMENT_3D('',#517,#425,#426);
#339=AXIS2_PLACEMENT_3D('',#520,#427,#428);
#340=AXIS2_PLACEMENT_3D('',#521,#429,#430);
#341=AXIS2_PLACEMENT_3D('',#522,#431,#432);
#342=AXIS2_PLACEMENT_3D('',#526,#434,#435);
#343=AXIS2_PLACEMENT_3D('',#527,#436,#437);
#344=AXIS2_PLACEMENT_3D('',#528,#438,#439);
#345=DIRECTION('axis',(0.,0.,1.));
#346=DIRECTION('refdir',(1.,0.,0.));
#347=DIRECTION('center_axis',(0.,1.38777878078145E-16,1.));
#348=DIRECTION('ref_axis',(0.,-1.,1.38777878078145E-16));
#349=DIRECTION('',(0.,1.,0.));
#350=DIRECTION('',(1.,0.,0.));
#351=DIRECTION('',(0.,-1.,0.));
#352=DIRECTION('center_axis',(0.,-0.707106781186547,0.707106781186548));
#353=DIRECTION('ref_axis',(0.,-0.707106781186548,-0.707106781186547));
#354=DIRECTION('center_axis',(0.,-0.707106781186547,0.707106781186548));
#355=DIRECTION('ref_axis',(0.,0.707106781186548,0.707106781186547));
#356=DIRECTION('center_axis',(0.,1.38777878078145E-16,-1.));
#357=DIRECTION('ref_axis',(0.,1.,1.38777878078145E-16));
#358=DIRECTION('',(0.,1.,0.));
#359=DIRECTION('',(1.,0.,0.));
#360=DIRECTION('',(0.,-1.,0.));
#361=DIRECTION('center_axis',(0.,-0.707106781186547,-0.707106781186548));
#362=DIRECTION('ref_axis',(0.,0.707106781186548,-0.707106781186547));
#363=DIRECTION('center_axis',(0.,-0.707106781186547,-0.707106781186548));
#364=DIRECTION('ref_axis',(0.,-0.707106781186548,0.707106781186547));
#365=DIRECTION('center_axis',(0.,-1.,0.));
#366=DIRECTION('ref_axis',(-1.,0.,0.));
#367=DIRECTION('center_axis',(0.,1.,0.));
#368=DIRECTION('ref_axis',(1.,0.,0.));
#369=DIRECTION('center_axis',(0.,1.,0.));
#370=DIRECTION('ref_axis',(1.,0.,0.));
#371=DIRECTION('',(0.707106781186547,-0.707106781186548,-8.65956056235493E-17));
#372=DIRECTION('center_axis',(0.,1.,0.));
#373=DIRECTION('ref_axis',(1.,0.,0.));
#374=DIRECTION('center_axis',(0.,1.,0.));
#375=DIRECTION('ref_axis',(1.,0.,0.));
#376=DIRECTION('center_axis',(0.,1.,0.));
#377=DIRECTION('ref_axis',(1.,0.,0.));
#378=DIRECTION('center_axis',(0.,1.,0.));
#379=DIRECTION('ref_axis',(-1.,0.,0.));
#380=DIRECTION('center_axis',(0.,1.,0.));
#381=DIRECTION('ref_axis',(1.,0.,0.));
#382=DIRECTION('center_axis',(0.,1.,0.));
#383=DIRECTION('ref_axis',(1.,0.,0.));
#384=DIRECTION('',(0.,-1.,0.));
#385=DIRECTION('center_axis',(0.,1.,0.));
#386=DIRECTION('ref_axis',(1.,0.,0.));
#387=DIRECTION('center_axis',(0.,1.,0.));
#388=DIRECTION('ref_axis',(1.,0.,0.));
#389=DIRECTION('center_axis',(0.,-1.,0.));
#390=DIRECTION('ref_axis',(-1.,0.,0.));
#391=DIRECTION('center_axis',(0.,1.,0.));
#392=DIRECTION('ref_axis',(1.,0.,0.));
#393=DIRECTION('center_axis',(0.,1.,0.));
#394=DIRECTION('ref_axis',(1.,0.,0.));
#395=DIRECTION('',(0.965925826289068,-0.258819045102521,-1.18291797137867E-16));
#396=DIRECTION('center_axis',(0.,1.,0.));
#397=DIRECTION('ref_axis',(0.,0.,1.));
#398=DIRECTION('center_axis',(0.,1.,0.));
#399=DIRECTION('ref_axis',(1.,0.,0.));
#400=DIRECTION('center_axis',(0.,1.,0.));
#401=DIRECTION('ref_axis',(1.,0.,0.));
#402=DIRECTION('center_axis',(0.,1.,0.));
#403=DIRECTION('ref_axis',(-1.,0.,0.));
#404=DIRECTION('',(0.,-1.,0.));
#405=DIRECTION('center_axis',(0.,1.,0.));
#406=DIRECTION('ref_axis',(-1.,0.,0.));
#407=DIRECTION('center_axis',(0.,1.,0.));
#408=DIRECTION('ref_axis',(1.,0.,0.));
#409=DIRECTION('center_axis',(0.,1.,0.));
#410=DIRECTION('ref_axis',(1.,0.,0.));
#411=DIRECTION('',(0.,-1.,0.));
#412=DIRECTION('center_axis',(0.,1.,0.));
#413=DIRECTION('ref_axis',(0.,0.,1.));
#414=DIRECTION('center_axis',(0.,1.,0.));
#415=DIRECTION('ref_axis',(1.,0.,0.));
#416=DIRECTION('center_axis',(0.,1.,0.));
#417=DIRECTION('ref_axis',(1.,0.,0.));
#418=DIRECTION('center_axis',(0.,1.,0.));
#419=DIRECTION('ref_axis',(-1.,0.,0.));
#420=DIRECTION('',(0.,-1.,0.));
#421=DIRECTION('center_axis',(0.,1.,0.));
#422=DIRECTION('ref_axis',(1.,0.,0.));
#423=DIRECTION('center_axis',(0.,1.,0.));
#424=DIRECTION('ref_axis',(1.,0.,0.));
#425=DIRECTION('center_axis',(0.,-1.,0.));
#426=DIRECTION('ref_axis',(0.,0.,-1.));
#427=DIRECTION('center_axis',(0.,1.,0.));
#428=DIRECTION('ref_axis',(1.,0.,0.));
#429=DIRECTION('center_axis',(0.,1.,0.));
#430=DIRECTION('ref_axis',(1.,0.,0.));
#431=DIRECTION('center_axis',(0.,1.,0.));
#432=DIRECTION('ref_axis',(-1.,0.,0.));
#433=DIRECTION('',(0.,-1.,0.));
#434=DIRECTION('center_axis',(0.,1.,0.));
#435=DIRECTION('ref_axis',(1.,0.,0.));
#436=DIRECTION('center_axis',(0.,1.,0.));
#437=DIRECTION('ref_axis',(1.,0.,0.));
#438=DIRECTION('center_axis',(0.,-1.,0.));
#439=DIRECTION('ref_axis',(0.,0.,-1.));
#440=CARTESIAN_POINT('',(0.,0.,0.));
#441=CARTESIAN_POINT('Origin',(-12.5,29.5,-11.));
#442=CARTESIAN_POINT('',(5.93717104351896,13.5,-11.));
#443=CARTESIAN_POINT('',(5.93717104351897,23.55,-11.));
#444=CARTESIAN_POINT('',(5.93717104351896,14.275,-11.));
#445=CARTESIAN_POINT('',(-5.93717104351896,13.5,-11.));
#446=CARTESIAN_POINT('',(-12.5,13.5,-11.));
#447=CARTESIAN_POINT('',(-5.93717104351897,23.55,-11.));
#448=CARTESIAN_POINT('',(-5.93717104351896,14.275,-11.));
#449=CARTESIAN_POINT('Ctrl Pts',(5.93717104351896,23.55,-11.));
#450=CARTESIAN_POINT('Ctrl Pts',(0.,26.37,-11.));
#451=CARTESIAN_POINT('Ctrl Pts',(-5.93717104351896,23.55,-11.));
#452=CARTESIAN_POINT('Origin',(-12.5,13.5,-11.));
#453=CARTESIAN_POINT('Origin',(0.,24.5,0.));
#454=CARTESIAN_POINT('Origin',(-12.5,13.5,11.));
#455=CARTESIAN_POINT('',(-5.93717104351896,13.5,11.));
#456=CARTESIAN_POINT('',(-5.93717104351897,23.55,11.));
#457=CARTESIAN_POINT('',(-5.93717104351896,14.275,11.));
#458=CARTESIAN_POINT('',(5.93717104351896,13.5,11.));
#459=CARTESIAN_POINT('',(-12.5,13.5,11.));
#460=CARTESIAN_POINT('',(5.93717104351897,23.55,11.));
#461=CARTESIAN_POINT('',(5.93717104351896,14.275,11.));
#462=CARTESIAN_POINT('Ctrl Pts',(-5.93717104351896,23.55,11.));
#463=CARTESIAN_POINT('Ctrl Pts',(0.,26.37,11.));
#464=CARTESIAN_POINT('Ctrl Pts',(5.93717104351896,23.55,11.));
#465=CARTESIAN_POINT('Origin',(-12.5,9.49999999999999,15.));
#466=CARTESIAN_POINT('Origin',(0.,24.5,0.));
#467=CARTESIAN_POINT('Origin',(0.,24.425,0.));
#468=CARTESIAN_POINT('',(-10.75,25.3,0.));
#469=CARTESIAN_POINT('',(10.75,25.3,-1.3164953090834E-15));
#470=CARTESIAN_POINT('Origin',(0.,25.3,0.));
#471=CARTESIAN_POINT('Origin',(0.,25.3,0.));
#472=CARTESIAN_POINT('',(12.5,23.55,-1.53080849893419E-15));
#473=CARTESIAN_POINT('',(11.625,24.425,-1.4236519040088E-15));
#474=CARTESIAN_POINT('Origin',(0.,23.55,0.));
#475=CARTESIAN_POINT('Origin',(0.,23.55,0.));
#476=CARTESIAN_POINT('Origin',(0.,23.55,0.));
#477=CARTESIAN_POINT('Origin',(0.,1.5,0.));
#478=CARTESIAN_POINT('',(-37.5,3.,0.));
#479=CARTESIAN_POINT('',(37.5,3.,-4.59242549680258E-15));
#480=CARTESIAN_POINT('Origin',(0.,3.,0.));
#481=CARTESIAN_POINT('Origin',(0.,3.,0.));
#482=CARTESIAN_POINT('',(37.5,-3.60822483003176E-15,-4.59242549680258E-15));
#483=CARTESIAN_POINT('',(37.5,1.5,-4.59242549680258E-15));
#484=CARTESIAN_POINT('',(-37.5,-3.67394039744206E-15,0.));
#485=CARTESIAN_POINT('Origin',(0.,-3.67394039744206E-15,0.));
#486=CARTESIAN_POINT('Origin',(0.,-3.67394039744206E-15,0.));
#487=CARTESIAN_POINT('Origin',(0.,4.,0.));
#488=CARTESIAN_POINT('',(-30.0358983848622,5.,0.));
#489=CARTESIAN_POINT('',(30.0358983848622,5.,-3.67833668165367E-15));
#490=CARTESIAN_POINT('Origin',(0.,5.,0.));
#491=CARTESIAN_POINT('Origin',(0.,5.,0.));
#492=CARTESIAN_POINT('',(33.7679491924311,4.,-4.13538108922812E-15));
#493=CARTESIAN_POINT('Origin',(-12.5,5.,0.));
#494=CARTESIAN_POINT('',(-12.5,5.,0.));
#495=CARTESIAN_POINT('',(12.5,5.,-1.53080849893419E-15));
#496=CARTESIAN_POINT('Origin',(0.,5.,0.));
#497=CARTESIAN_POINT('Origin',(0.,5.,0.));
#498=CARTESIAN_POINT('Origin',(0.,14.275,0.));
#499=CARTESIAN_POINT('',(12.5,14.275,-1.53080849893419E-15));
#500=CARTESIAN_POINT('Origin',(0.,32.65,0.));
#501=CARTESIAN_POINT('',(-10.75,40.,0.));
#502=CARTESIAN_POINT('',(10.75,40.,-1.3164953090834E-15));
#503=CARTESIAN_POINT('Origin',(0.,40.,0.));
#504=CARTESIAN_POINT('Origin',(0.,40.,0.));
#505=CARTESIAN_POINT('',(10.75,32.65,-1.3164953090834E-15));
#506=CARTESIAN_POINT('Origin',(-5.95000000000001,40.,0.));
#507=CARTESIAN_POINT('',(-5.95000000000001,40.,0.));
#508=CARTESIAN_POINT('',(5.95,40.,-7.28664845492675E-16));
#509=CARTESIAN_POINT('Origin',(0.,40.,0.));
#510=CARTESIAN_POINT('Origin',(0.,40.,0.));
#511=CARTESIAN_POINT('Origin',(0.,21.25,0.));
#512=CARTESIAN_POINT('',(5.95,2.5,-7.28664845492675E-16));
#513=CARTESIAN_POINT('',(5.95,21.25,-7.28664845492675E-16));
#514=CARTESIAN_POINT('',(-5.95,2.5,0.));
#515=CARTESIAN_POINT('Origin',(0.,2.5,0.));
#516=CARTESIAN_POINT('Origin',(0.,2.5,0.));
#517=CARTESIAN_POINT('Origin',(-26.1,2.5,0.));
#518=CARTESIAN_POINT('',(-26.1,2.5,0.));
#519=CARTESIAN_POINT('',(26.1,2.5,-3.19632814577459E-15));
#520=CARTESIAN_POINT('Origin',(0.,2.5,0.));
#521=CARTESIAN_POINT('Origin',(0.,2.5,0.));
#522=CARTESIAN_POINT('Origin',(0.,1.25,0.));
#523=CARTESIAN_POINT('',(26.1,-2.22044604925031E-15,-3.19632814577459E-15));
#524=CARTESIAN_POINT('',(26.1,1.25,-3.19632814577459E-15));
#525=CARTESIAN_POINT('',(-26.1,-2.22044604925031E-15,0.));
#526=CARTESIAN_POINT('Origin',(0.,-2.22044604925031E-15,0.));
#527=CARTESIAN_POINT('Origin',(0.,-2.22044604925031E-15,0.));
#528=CARTESIAN_POINT('Origin',(-37.5,-3.67394039744206E-15,0.));
#529=UNCERTAINTY_MEASURE_WITH_UNIT(LENGTH_MEASURE(0.01),#533,
'DISTANCE_ACCURACY_VALUE',
'Maximum model space distance between geometric entities at asserted c
onnectivities');
#530=UNCERTAINTY_MEASURE_WITH_UNIT(LENGTH_MEASURE(0.01),#533,
'DISTANCE_ACCURACY_VALUE',
'Maximum model space distance between geometric entities at asserted c
onnectivities');
#531=(
GEOMETRIC_REPRESENTATION_CONTEXT(3)
GLOBAL_UNCERTAINTY_ASSIGNED_CONTEXT((#529))
GLOBAL_UNIT_ASSIGNED_CONTEXT((#533,#535,#536))
REPRESENTATION_CONTEXT('','3D')
);
#532=(
GEOMETRIC_REPRESENTATION_CONTEXT(3)
GLOBAL_UNCERTAINTY_ASSIGNED_CONTEXT((#530))
GLOBAL_UNIT_ASSIGNED_CONTEXT((#533,#535,#536))
REPRESENTATION_CONTEXT('','3D')
);
#533=(
LENGTH_UNIT()
NAMED_UNIT(*)
SI_UNIT(.MILLI.,.METRE.)
);
#534=(
LENGTH_UNIT()
NAMED_UNIT(*)
SI_UNIT(.CENTI.,.METRE.)
);
#535=(
NAMED_UNIT(*)
PLANE_ANGLE_UNIT()
SI_UNIT($,.RADIAN.)
);
#536=(
NAMED_UNIT(*)
SI_UNIT($,.STERADIAN.)
SOLID_ANGLE_UNIT()
);
#537=SHAPE_DEFINITION_REPRESENTATION(#538,#539);
#538=PRODUCT_DEFINITION_SHAPE('',$,#541);
#539=SHAPE_REPRESENTATION('',(#304),#531);
#540=PRODUCT_DEFINITION_CONTEXT('part definition',#545,'design');
#541=PRODUCT_DEFINITION('FL-16KF-1_8BSPM','FL-50KF-1_2BSPM',#542,#540);
#542=PRODUCT_DEFINITION_FORMATION('',$,#547);
#543=PRODUCT_RELATED_PRODUCT_CATEGORY('FL-50KF-1_2BSPM',
'FL-50KF-1_2BSPM',(#547));
#544=APPLICATION_PROTOCOL_DEFINITION('international standard',
'automotive_design',2009,#545);
#545=APPLICATION_CONTEXT(
'Core Data for Automotive Mechanical Design Process');
#546=PRODUCT_CONTEXT('part definition',#545,'mechanical');
#547=PRODUCT('FL-16KF-1_8BSPM','FL-50KF-1_2BSPM',$,(#546));
#548=PRESENTATION_STYLE_ASSIGNMENT((#549));
#549=SURFACE_STYLE_USAGE(.BOTH.,#552);
#550=SURFACE_STYLE_RENDERING_WITH_PROPERTIES($,#556,(#551));
#551=SURFACE_STYLE_TRANSPARENT(1.);
#552=SURFACE_SIDE_STYLE('',(#553,#550));
#553=SURFACE_STYLE_FILL_AREA(#554);
#554=FILL_AREA_STYLE('',(#555));
#555=FILL_AREA_STYLE_COLOUR('',#556);
#556=COLOUR_RGB('',0.745098039215686,0.737254901960784,0.729411764705882);
ENDSEC;
END-ISO-10303-21;
