ISO-10303-21;
HEADER;
/* Generated by software containing ST-Developer
 * from STEP Tools, Inc. (www.steptools.com) 
 */

FILE_DESCRIPTION(
/* description */ (''),
/* implementation_level */ '2;1');

FILE_NAME(
/* name */ 
'G:\\FLANGES & FITTINGS\\BSP Adapters\\Step Files\\FL-50KF-1BSPF.stp',
/* time_stamp */ '2019-03-12T14:30:09+00:00',
/* author */ ('paul'),
/* organization */ (''),
/* preprocessor_version */ 'ST-DEVELOPER v17.2',
/* originating_system */ 'Autodesk Inventor 2019',
/* authorisation */ '');

FILE_SCHEMA (('AUTOMOTIVE_DESIGN { 1 0 10303 214 3 1 1 }'));
ENDSEC;

DATA;
#10=MECHANICAL_DESIGN_GEOMETRIC_PRESENTATION_REPRESENTATION('',(#13),#422);
#11=SHAPE_REPRESENTATION_RELATIONSHIP('SRR','None',#429,#12);
#12=ADVANCED_BREP_SHAPE_REPRESENTATION('',(#14),#421);
#13=STYLED_ITEM('',(#438),#14);
#14=MANIFOLD_SOLID_BREP('Solid1',#228);
#15=CONICAL_SURFACE('',#273,31.45,1.30899693899575);
#16=FACE_BOUND('',#46,.T.);
#17=FACE_BOUND('',#49,.T.);
#18=FACE_BOUND('',#54,.T.);
#19=ELLIPSE('',#254,35.9210244842766,25.4);
#20=ELLIPSE('',#257,35.9210244842766,25.4);
#21=PLANE('',#252);
#22=PLANE('',#253);
#23=PLANE('',#255);
#24=PLANE('',#256);
#25=PLANE('',#258);
#26=PLANE('',#267);
#27=PLANE('',#277);
#28=FACE_OUTER_BOUND('',#40,.T.);
#29=FACE_OUTER_BOUND('',#41,.T.);
#30=FACE_OUTER_BOUND('',#42,.T.);
#31=FACE_OUTER_BOUND('',#43,.T.);
#32=FACE_OUTER_BOUND('',#44,.T.);
#33=FACE_OUTER_BOUND('',#45,.T.);
#34=FACE_OUTER_BOUND('',#47,.T.);
#35=FACE_OUTER_BOUND('',#48,.T.);
#36=FACE_OUTER_BOUND('',#50,.T.);
#37=FACE_OUTER_BOUND('',#51,.T.);
#38=FACE_OUTER_BOUND('',#52,.T.);
#39=FACE_OUTER_BOUND('',#53,.T.);
#40=EDGE_LOOP('',(#150,#151,#152,#153,#154));
#41=EDGE_LOOP('',(#155,#156,#157,#158));
#42=EDGE_LOOP('',(#159,#160));
#43=EDGE_LOOP('',(#161,#162,#163,#164));
#44=EDGE_LOOP('',(#165,#166));
#45=EDGE_LOOP('',(#167,#168,#169,#170,#171));
#46=EDGE_LOOP('',(#172,#173));
#47=EDGE_LOOP('',(#174,#175,#176,#177,#178,#179));
#48=EDGE_LOOP('',(#180,#181));
#49=EDGE_LOOP('',(#182,#183));
#50=EDGE_LOOP('',(#184,#185,#186,#187,#188,#189));
#51=EDGE_LOOP('',(#190,#191,#192,#193,#194,#195));
#52=EDGE_LOOP('',(#196,#197,#198,#199,#200,#201,#202,#203,#204,#205,#206,
#207,#208));
#53=EDGE_LOOP('',(#209,#210));
#54=EDGE_LOOP('',(#211));
#55=LINE('',#360,#68);
#56=LINE('',#365,#69);
#57=LINE('',#367,#70);
#58=LINE('',#369,#71);
#59=LINE('',#370,#72);
#60=LINE('',#376,#73);
#61=LINE('',#378,#74);
#62=LINE('',#380,#75);
#63=LINE('',#381,#76);
#64=LINE('',#394,#77);
#65=LINE('',#409,#78);
#66=LINE('',#415,#79);
#67=LINE('',#417,#80);
#68=VECTOR('',#286,15.);
#69=VECTOR('',#291,10.);
#70=VECTOR('',#292,10.);
#71=VECTOR('',#293,10.);
#72=VECTOR('',#294,10.);
#73=VECTOR('',#301,10.);
#74=VECTOR('',#302,10.);
#75=VECTOR('',#303,10.);
#76=VECTOR('',#304,10.);
#77=VECTOR('',#321,26.1);
#78=VECTOR('',#340,37.5);
#79=VECTOR('',#347,31.45);
#80=VECTOR('',#350,25.4);
#81=CIRCLE('',#249,15.);
#82=CIRCLE('',#250,15.);
#83=CIRCLE('',#251,15.);
#84=CIRCLE('',#259,25.4);
#85=CIRCLE('',#260,25.4);
#86=CIRCLE('',#261,25.4);
#87=CIRCLE('',#263,26.1);
#88=CIRCLE('',#264,26.1);
#89=CIRCLE('',#265,26.1);
#90=CIRCLE('',#266,26.1);
#91=CIRCLE('',#268,37.5);
#92=CIRCLE('',#269,37.5);
#93=CIRCLE('',#271,37.5);
#94=CIRCLE('',#272,37.5);
#95=CIRCLE('',#274,25.4);
#96=CIRCLE('',#275,25.4);
#97=VERTEX_POINT('',#355);
#98=VERTEX_POINT('',#356);
#99=VERTEX_POINT('',#359);
#100=VERTEX_POINT('',#363);
#101=VERTEX_POINT('',#364);
#102=VERTEX_POINT('',#366);
#103=VERTEX_POINT('',#368);
#104=VERTEX_POINT('',#374);
#105=VERTEX_POINT('',#375);
#106=VERTEX_POINT('',#377);
#107=VERTEX_POINT('',#379);
#108=VERTEX_POINT('',#386);
#109=VERTEX_POINT('',#390);
#110=VERTEX_POINT('',#391);
#111=VERTEX_POINT('',#393);
#112=VERTEX_POINT('',#395);
#113=VERTEX_POINT('',#400);
#114=VERTEX_POINT('',#401);
#115=VERTEX_POINT('',#405);
#116=VERTEX_POINT('',#406);
#117=VERTEX_POINT('',#411);
#118=VERTEX_POINT('',#412);
#119=EDGE_CURVE('',#97,#98,#81,.T.);
#120=EDGE_CURVE('',#98,#97,#82,.T.);
#121=EDGE_CURVE('',#98,#99,#55,.T.);
#122=EDGE_CURVE('',#99,#99,#83,.T.);
#123=EDGE_CURVE('',#100,#101,#56,.T.);
#124=EDGE_CURVE('',#102,#100,#57,.T.);
#125=EDGE_CURVE('',#103,#102,#58,.T.);
#126=EDGE_CURVE('',#101,#103,#59,.T.);
#127=EDGE_CURVE('',#102,#100,#19,.T.);
#128=EDGE_CURVE('',#104,#105,#60,.T.);
#129=EDGE_CURVE('',#104,#106,#61,.T.);
#130=EDGE_CURVE('',#107,#106,#62,.T.);
#131=EDGE_CURVE('',#105,#107,#63,.T.);
#132=EDGE_CURVE('',#106,#104,#20,.T.);
#133=EDGE_CURVE('',#103,#105,#84,.T.);
#134=EDGE_CURVE('',#107,#108,#85,.T.);
#135=EDGE_CURVE('',#108,#101,#86,.T.);
#136=EDGE_CURVE('',#109,#110,#87,.T.);
#137=EDGE_CURVE('',#110,#111,#64,.T.);
#138=EDGE_CURVE('',#112,#111,#88,.T.);
#139=EDGE_CURVE('',#111,#112,#89,.T.);
#140=EDGE_CURVE('',#110,#109,#90,.T.);
#141=EDGE_CURVE('',#113,#114,#91,.T.);
#142=EDGE_CURVE('',#114,#113,#92,.T.);
#143=EDGE_CURVE('',#115,#116,#93,.T.);
#144=EDGE_CURVE('',#116,#115,#94,.T.);
#145=EDGE_CURVE('',#116,#114,#65,.T.);
#146=EDGE_CURVE('',#117,#118,#95,.T.);
#147=EDGE_CURVE('',#118,#117,#96,.T.);
#148=EDGE_CURVE('',#118,#116,#66,.T.);
#149=EDGE_CURVE('',#108,#118,#67,.T.);
#150=ORIENTED_EDGE('',*,*,#119,.F.);
#151=ORIENTED_EDGE('',*,*,#120,.F.);
#152=ORIENTED_EDGE('',*,*,#121,.T.);
#153=ORIENTED_EDGE('',*,*,#122,.F.);
#154=ORIENTED_EDGE('',*,*,#121,.F.);
#155=ORIENTED_EDGE('',*,*,#123,.F.);
#156=ORIENTED_EDGE('',*,*,#124,.F.);
#157=ORIENTED_EDGE('',*,*,#125,.F.);
#158=ORIENTED_EDGE('',*,*,#126,.F.);
#159=ORIENTED_EDGE('',*,*,#127,.F.);
#160=ORIENTED_EDGE('',*,*,#124,.T.);
#161=ORIENTED_EDGE('',*,*,#128,.F.);
#162=ORIENTED_EDGE('',*,*,#129,.T.);
#163=ORIENTED_EDGE('',*,*,#130,.F.);
#164=ORIENTED_EDGE('',*,*,#131,.F.);
#165=ORIENTED_EDGE('',*,*,#132,.F.);
#166=ORIENTED_EDGE('',*,*,#129,.F.);
#167=ORIENTED_EDGE('',*,*,#126,.T.);
#168=ORIENTED_EDGE('',*,*,#133,.T.);
#169=ORIENTED_EDGE('',*,*,#131,.T.);
#170=ORIENTED_EDGE('',*,*,#134,.T.);
#171=ORIENTED_EDGE('',*,*,#135,.T.);
#172=ORIENTED_EDGE('',*,*,#119,.T.);
#173=ORIENTED_EDGE('',*,*,#120,.T.);
#174=ORIENTED_EDGE('',*,*,#136,.T.);
#175=ORIENTED_EDGE('',*,*,#137,.T.);
#176=ORIENTED_EDGE('',*,*,#138,.F.);
#177=ORIENTED_EDGE('',*,*,#139,.F.);
#178=ORIENTED_EDGE('',*,*,#137,.F.);
#179=ORIENTED_EDGE('',*,*,#140,.T.);
#180=ORIENTED_EDGE('',*,*,#141,.F.);
#181=ORIENTED_EDGE('',*,*,#142,.F.);
#182=ORIENTED_EDGE('',*,*,#138,.T.);
#183=ORIENTED_EDGE('',*,*,#139,.T.);
#184=ORIENTED_EDGE('',*,*,#143,.F.);
#185=ORIENTED_EDGE('',*,*,#144,.F.);
#186=ORIENTED_EDGE('',*,*,#145,.T.);
#187=ORIENTED_EDGE('',*,*,#142,.T.);
#188=ORIENTED_EDGE('',*,*,#141,.T.);
#189=ORIENTED_EDGE('',*,*,#145,.F.);
#190=ORIENTED_EDGE('',*,*,#146,.F.);
#191=ORIENTED_EDGE('',*,*,#147,.F.);
#192=ORIENTED_EDGE('',*,*,#148,.T.);
#193=ORIENTED_EDGE('',*,*,#144,.T.);
#194=ORIENTED_EDGE('',*,*,#143,.T.);
#195=ORIENTED_EDGE('',*,*,#148,.F.);
#196=ORIENTED_EDGE('',*,*,#123,.T.);
#197=ORIENTED_EDGE('',*,*,#135,.F.);
#198=ORIENTED_EDGE('',*,*,#149,.T.);
#199=ORIENTED_EDGE('',*,*,#147,.T.);
#200=ORIENTED_EDGE('',*,*,#146,.T.);
#201=ORIENTED_EDGE('',*,*,#149,.F.);
#202=ORIENTED_EDGE('',*,*,#134,.F.);
#203=ORIENTED_EDGE('',*,*,#130,.T.);
#204=ORIENTED_EDGE('',*,*,#132,.T.);
#205=ORIENTED_EDGE('',*,*,#128,.T.);
#206=ORIENTED_EDGE('',*,*,#133,.F.);
#207=ORIENTED_EDGE('',*,*,#125,.T.);
#208=ORIENTED_EDGE('',*,*,#127,.T.);
#209=ORIENTED_EDGE('',*,*,#136,.F.);
#210=ORIENTED_EDGE('',*,*,#140,.F.);
#211=ORIENTED_EDGE('',*,*,#122,.T.);
#212=CYLINDRICAL_SURFACE('',#248,15.);
#213=CYLINDRICAL_SURFACE('',#262,26.1);
#214=CYLINDRICAL_SURFACE('',#270,37.5);
#215=CYLINDRICAL_SURFACE('',#276,25.4);
#216=ADVANCED_FACE('',(#28),#212,.F.);
#217=ADVANCED_FACE('',(#29),#21,.F.);
#218=ADVANCED_FACE('',(#30),#22,.F.);
#219=ADVANCED_FACE('',(#31),#23,.F.);
#220=ADVANCED_FACE('',(#32),#24,.F.);
#221=ADVANCED_FACE('',(#33,#16),#25,.T.);
#222=ADVANCED_FACE('',(#34),#213,.F.);
#223=ADVANCED_FACE('',(#35,#17),#26,.T.);
#224=ADVANCED_FACE('',(#36),#214,.T.);
#225=ADVANCED_FACE('',(#37),#15,.T.);
#226=ADVANCED_FACE('',(#38),#215,.T.);
#227=ADVANCED_FACE('',(#39,#18),#27,.T.);
#228=CLOSED_SHELL('',(#216,#217,#218,#219,#220,#221,#222,#223,#224,#225,
#226,#227));
#229=DERIVED_UNIT_ELEMENT(#231,1.);
#230=DERIVED_UNIT_ELEMENT(#424,3.);
#231=(
MASS_UNIT()
NAMED_UNIT(*)
SI_UNIT($,.GRAM.)
);
#232=DERIVED_UNIT((#229,#230));
#233=MEASURE_REPRESENTATION_ITEM('density measure',
POSITIVE_RATIO_MEASURE(8.),#232);
#234=PROPERTY_DEFINITION_REPRESENTATION(#239,#236);
#235=PROPERTY_DEFINITION_REPRESENTATION(#240,#237);
#236=REPRESENTATION('material name',(#238),#421);
#237=REPRESENTATION('density',(#233),#421);
#238=DESCRIPTIVE_REPRESENTATION_ITEM('Stainless Steel AISI 304',
'Stainless Steel AISI 304');
#239=PROPERTY_DEFINITION('material property','material name',#431);
#240=PROPERTY_DEFINITION('material property','density of part',#431);
#241=DATE_TIME_ROLE('creation_date');
#242=APPLIED_DATE_AND_TIME_ASSIGNMENT(#243,#241,(#431));
#243=DATE_AND_TIME(#244,#245);
#244=CALENDAR_DATE(2014,20,11);
#245=LOCAL_TIME(11,0,44.,#246);
#246=COORDINATED_UNIVERSAL_TIME_OFFSET(0,0,.BEHIND.);
#247=AXIS2_PLACEMENT_3D('placement',#353,#278,#279);
#248=AXIS2_PLACEMENT_3D('',#354,#280,#281);
#249=AXIS2_PLACEMENT_3D('',#357,#282,#283);
#250=AXIS2_PLACEMENT_3D('',#358,#284,#285);
#251=AXIS2_PLACEMENT_3D('',#361,#287,#288);
#252=AXIS2_PLACEMENT_3D('',#362,#289,#290);
#253=AXIS2_PLACEMENT_3D('',#371,#295,#296);
#254=AXIS2_PLACEMENT_3D('',#372,#297,#298);
#255=AXIS2_PLACEMENT_3D('',#373,#299,#300);
#256=AXIS2_PLACEMENT_3D('',#382,#305,#306);
#257=AXIS2_PLACEMENT_3D('',#383,#307,#308);
#258=AXIS2_PLACEMENT_3D('',#384,#309,#310);
#259=AXIS2_PLACEMENT_3D('',#385,#311,#312);
#260=AXIS2_PLACEMENT_3D('',#387,#313,#314);
#261=AXIS2_PLACEMENT_3D('',#388,#315,#316);
#262=AXIS2_PLACEMENT_3D('',#389,#317,#318);
#263=AXIS2_PLACEMENT_3D('',#392,#319,#320);
#264=AXIS2_PLACEMENT_3D('',#396,#322,#323);
#265=AXIS2_PLACEMENT_3D('',#397,#324,#325);
#266=AXIS2_PLACEMENT_3D('',#398,#326,#327);
#267=AXIS2_PLACEMENT_3D('',#399,#328,#329);
#268=AXIS2_PLACEMENT_3D('',#402,#330,#331);
#269=AXIS2_PLACEMENT_3D('',#403,#332,#333);
#270=AXIS2_PLACEMENT_3D('',#404,#334,#335);
#271=AXIS2_PLACEMENT_3D('',#407,#336,#337);
#272=AXIS2_PLACEMENT_3D('',#408,#338,#339);
#273=AXIS2_PLACEMENT_3D('',#410,#341,#342);
#274=AXIS2_PLACEMENT_3D('',#413,#343,#344);
#275=AXIS2_PLACEMENT_3D('',#414,#345,#346);
#276=AXIS2_PLACEMENT_3D('',#416,#348,#349);
#277=AXIS2_PLACEMENT_3D('',#418,#351,#352);
#278=DIRECTION('axis',(0.,0.,1.));
#279=DIRECTION('refdir',(1.,0.,0.));
#280=DIRECTION('center_axis',(0.,1.,0.));
#281=DIRECTION('ref_axis',(1.,0.,0.));
#282=DIRECTION('center_axis',(0.,-1.,0.));
#283=DIRECTION('ref_axis',(1.,0.,0.));
#284=DIRECTION('center_axis',(0.,-1.,0.));
#285=DIRECTION('ref_axis',(1.,0.,0.));
#286=DIRECTION('',(0.,-1.,0.));
#287=DIRECTION('center_axis',(0.,1.,0.));
#288=DIRECTION('ref_axis',(1.,0.,0.));
#289=DIRECTION('center_axis',(0.,-2.22044604925031E-16,1.));
#290=DIRECTION('ref_axis',(0.,-1.,-2.22044604925031E-16));
#291=DIRECTION('',(0.,1.,0.));
#292=DIRECTION('',(1.,0.,0.));
#293=DIRECTION('',(0.,-1.,0.));
#294=DIRECTION('',(-1.,0.,0.));
#295=DIRECTION('center_axis',(0.,-0.707106781186548,0.707106781186547));
#296=DIRECTION('ref_axis',(0.,-0.707106781186547,-0.707106781186548));
#297=DIRECTION('center_axis',(0.,-0.707106781186548,0.707106781186547));
#298=DIRECTION('ref_axis',(0.,0.707106781186547,0.707106781186548));
#299=DIRECTION('center_axis',(0.,-2.22044604925031E-16,-1.));
#300=DIRECTION('ref_axis',(0.,1.,-2.22044604925031E-16));
#301=DIRECTION('',(0.,1.,0.));
#302=DIRECTION('',(1.,0.,0.));
#303=DIRECTION('',(0.,-1.,0.));
#304=DIRECTION('',(1.,0.,0.));
#305=DIRECTION('center_axis',(0.,-0.707106781186548,-0.707106781186547));
#306=DIRECTION('ref_axis',(0.,0.707106781186547,-0.707106781186548));
#307=DIRECTION('center_axis',(0.,-0.707106781186548,-0.707106781186547));
#308=DIRECTION('ref_axis',(0.,-0.707106781186547,0.707106781186548));
#309=DIRECTION('center_axis',(0.,1.,0.));
#310=DIRECTION('ref_axis',(0.,0.,1.));
#311=DIRECTION('center_axis',(0.,1.,0.));
#312=DIRECTION('ref_axis',(1.,0.,0.));
#313=DIRECTION('center_axis',(0.,1.,0.));
#314=DIRECTION('ref_axis',(1.,0.,0.));
#315=DIRECTION('center_axis',(0.,1.,0.));
#316=DIRECTION('ref_axis',(1.,0.,0.));
#317=DIRECTION('center_axis',(0.,1.,0.));
#318=DIRECTION('ref_axis',(-1.,0.,0.));
#319=DIRECTION('center_axis',(0.,1.,0.));
#320=DIRECTION('ref_axis',(1.,0.,0.));
#321=DIRECTION('',(0.,-1.,0.));
#322=DIRECTION('center_axis',(0.,1.,0.));
#323=DIRECTION('ref_axis',(1.,0.,0.));
#324=DIRECTION('center_axis',(0.,1.,0.));
#325=DIRECTION('ref_axis',(1.,0.,0.));
#326=DIRECTION('center_axis',(0.,1.,0.));
#327=DIRECTION('ref_axis',(1.,0.,0.));
#328=DIRECTION('center_axis',(0.,-1.,0.));
#329=DIRECTION('ref_axis',(0.,0.,-1.));
#330=DIRECTION('center_axis',(0.,1.,0.));
#331=DIRECTION('ref_axis',(1.,0.,0.));
#332=DIRECTION('center_axis',(0.,1.,0.));
#333=DIRECTION('ref_axis',(1.,0.,0.));
#334=DIRECTION('center_axis',(0.,1.,0.));
#335=DIRECTION('ref_axis',(-1.,0.,0.));
#336=DIRECTION('center_axis',(0.,1.,0.));
#337=DIRECTION('ref_axis',(1.,0.,0.));
#338=DIRECTION('center_axis',(0.,1.,0.));
#339=DIRECTION('ref_axis',(1.,0.,0.));
#340=DIRECTION('',(0.,-1.,0.));
#341=DIRECTION('center_axis',(0.,-1.,0.));
#342=DIRECTION('ref_axis',(-1.,0.,0.));
#343=DIRECTION('center_axis',(0.,1.,0.));
#344=DIRECTION('ref_axis',(1.,0.,0.));
#345=DIRECTION('center_axis',(0.,1.,0.));
#346=DIRECTION('ref_axis',(1.,0.,0.));
#347=DIRECTION('',(0.965925826289068,-0.258819045102521,-1.18291797137867E-16));
#348=DIRECTION('center_axis',(0.,1.,0.));
#349=DIRECTION('ref_axis',(-1.,0.,0.));
#350=DIRECTION('',(0.,-1.,0.));
#351=DIRECTION('center_axis',(0.,-1.,0.));
#352=DIRECTION('ref_axis',(0.,0.,-1.));
#353=CARTESIAN_POINT('',(0.,0.,0.));
#354=CARTESIAN_POINT('Origin',(0.,-83.9724735885168,0.));
#355=CARTESIAN_POINT('',(15.,25.,0.));
#356=CARTESIAN_POINT('',(-15.,25.,1.83697019872103E-15));
#357=CARTESIAN_POINT('Origin',(0.,25.,0.));
#358=CARTESIAN_POINT('Origin',(0.,25.,0.));
#359=CARTESIAN_POINT('',(-15.,2.5,1.83697019872103E-15));
#360=CARTESIAN_POINT('',(-15.,-83.9724735885168,1.83697019872103E-15));
#361=CARTESIAN_POINT('Origin',(0.,2.5,0.));
#362=CARTESIAN_POINT('Origin',(-25.4,34.2421852284166,-23.));
#363=CARTESIAN_POINT('',(10.777754868246,14.2421852284166,-23.));
#364=CARTESIAN_POINT('',(10.777754868246,25.,-23.));
#365=CARTESIAN_POINT('',(10.777754868246,15.6210926142083,-23.));
#366=CARTESIAN_POINT('',(-10.777754868246,14.2421852284166,-23.));
#367=CARTESIAN_POINT('',(-25.4,14.2421852284166,-23.));
#368=CARTESIAN_POINT('',(-10.777754868246,25.,-23.));
#369=CARTESIAN_POINT('',(-10.777754868246,15.6210926142083,-23.));
#370=CARTESIAN_POINT('',(-12.7,25.,-23.));
#371=CARTESIAN_POINT('Origin',(-25.4,14.2421852284166,-23.));
#372=CARTESIAN_POINT('Origin',(0.,37.2421852284166,0.));
#373=CARTESIAN_POINT('Origin',(-25.4,14.2421852284166,23.));
#374=CARTESIAN_POINT('',(-10.777754868246,14.2421852284166,23.));
#375=CARTESIAN_POINT('',(-10.777754868246,25.,23.));
#376=CARTESIAN_POINT('',(-10.777754868246,15.6210926142083,23.));
#377=CARTESIAN_POINT('',(10.777754868246,14.2421852284166,23.));
#378=CARTESIAN_POINT('',(-25.4,14.2421852284166,23.));
#379=CARTESIAN_POINT('',(10.777754868246,25.,23.));
#380=CARTESIAN_POINT('',(10.777754868246,15.6210926142083,23.));
#381=CARTESIAN_POINT('',(-12.7,25.,23.));
#382=CARTESIAN_POINT('Origin',(-25.4,10.7421852284166,26.5));
#383=CARTESIAN_POINT('Origin',(0.,37.2421852284166,0.));
#384=CARTESIAN_POINT('Origin',(0.,25.,0.));
#385=CARTESIAN_POINT('Origin',(0.,25.,0.));
#386=CARTESIAN_POINT('',(25.4,25.,-3.11060286983428E-15));
#387=CARTESIAN_POINT('Origin',(0.,25.,0.));
#388=CARTESIAN_POINT('Origin',(0.,25.,0.));
#389=CARTESIAN_POINT('Origin',(0.,1.25,0.));
#390=CARTESIAN_POINT('',(-26.1,2.5,0.));
#391=CARTESIAN_POINT('',(26.1,2.5,-3.19632814577459E-15));
#392=CARTESIAN_POINT('Origin',(0.,2.5,0.));
#393=CARTESIAN_POINT('',(26.1,-2.22044604925031E-15,-3.19632814577459E-15));
#394=CARTESIAN_POINT('',(26.1,1.25,-3.19632814577459E-15));
#395=CARTESIAN_POINT('',(-26.1,-2.22044604925031E-15,0.));
#396=CARTESIAN_POINT('Origin',(0.,-2.22044604925031E-15,0.));
#397=CARTESIAN_POINT('Origin',(0.,-2.22044604925031E-15,0.));
#398=CARTESIAN_POINT('Origin',(0.,2.5,0.));
#399=CARTESIAN_POINT('Origin',(-37.5,-3.67394039744206E-15,0.));
#400=CARTESIAN_POINT('',(-37.5,-3.67394039744206E-15,0.));
#401=CARTESIAN_POINT('',(37.5,-3.60822483003176E-15,-4.59242549680258E-15));
#402=CARTESIAN_POINT('Origin',(0.,-3.60822483003176E-15,0.));
#403=CARTESIAN_POINT('Origin',(0.,-3.60822483003176E-15,0.));
#404=CARTESIAN_POINT('Origin',(0.,1.5,0.));
#405=CARTESIAN_POINT('',(-37.5,3.,0.));
#406=CARTESIAN_POINT('',(37.5,3.,-4.59242549680258E-15));
#407=CARTESIAN_POINT('Origin',(0.,3.,0.));
#408=CARTESIAN_POINT('Origin',(0.,3.,0.));
#409=CARTESIAN_POINT('',(37.5,1.5,-4.59242549680258E-15));
#410=CARTESIAN_POINT('Origin',(0.,4.62109261420829,0.));
#411=CARTESIAN_POINT('',(-25.4,6.24218522841658,0.));
#412=CARTESIAN_POINT('',(25.4,6.24218522841658,-3.11060286983428E-15));
#413=CARTESIAN_POINT('Origin',(0.,6.24218522841658,0.));
#414=CARTESIAN_POINT('Origin',(0.,6.24218522841658,0.));
#415=CARTESIAN_POINT('',(31.45,4.62109261420829,-3.85151418331843E-15));
#416=CARTESIAN_POINT('Origin',(0.,15.6210926142083,0.));
#417=CARTESIAN_POINT('',(25.4,15.6210926142083,-3.11060286983428E-15));
#418=CARTESIAN_POINT('Origin',(-26.1,2.5,0.));
#419=UNCERTAINTY_MEASURE_WITH_UNIT(LENGTH_MEASURE(0.01),#423,
'DISTANCE_ACCURACY_VALUE',
'Maximum model space distance between geometric entities at asserted c
onnectivities');
#420=UNCERTAINTY_MEASURE_WITH_UNIT(LENGTH_MEASURE(0.01),#423,
'DISTANCE_ACCURACY_VALUE',
'Maximum model space distance between geometric entities at asserted c
onnectivities');
#421=(
GEOMETRIC_REPRESENTATION_CONTEXT(3)
GLOBAL_UNCERTAINTY_ASSIGNED_CONTEXT((#419))
GLOBAL_UNIT_ASSIGNED_CONTEXT((#423,#425,#426))
REPRESENTATION_CONTEXT('','3D')
);
#422=(
GEOMETRIC_REPRESENTATION_CONTEXT(3)
GLOBAL_UNCERTAINTY_ASSIGNED_CONTEXT((#420))
GLOBAL_UNIT_ASSIGNED_CONTEXT((#423,#425,#426))
REPRESENTATION_CONTEXT('','3D')
);
#423=(
LENGTH_UNIT()
NAMED_UNIT(*)
SI_UNIT(.MILLI.,.METRE.)
);
#424=(
LENGTH_UNIT()
NAMED_UNIT(*)
SI_UNIT(.CENTI.,.METRE.)
);
#425=(
NAMED_UNIT(*)
PLANE_ANGLE_UNIT()
SI_UNIT($,.RADIAN.)
);
#426=(
NAMED_UNIT(*)
SI_UNIT($,.STERADIAN.)
SOLID_ANGLE_UNIT()
);
#427=SHAPE_DEFINITION_REPRESENTATION(#428,#429);
#428=PRODUCT_DEFINITION_SHAPE('',$,#431);
#429=SHAPE_REPRESENTATION('',(#247),#421);
#430=PRODUCT_DEFINITION_CONTEXT('part definition',#435,'design');
#431=PRODUCT_DEFINITION('FL-16KF-1_8BSPM','FL-50KF-1BSPF',#432,#430);
#432=PRODUCT_DEFINITION_FORMATION('',$,#437);
#433=PRODUCT_RELATED_PRODUCT_CATEGORY('FL-50KF-1BSPF','FL-50KF-1BSPF',(#437));
#434=APPLICATION_PROTOCOL_DEFINITION('international standard',
'automotive_design',2009,#435);
#435=APPLICATION_CONTEXT(
'Core Data for Automotive Mechanical Design Process');
#436=PRODUCT_CONTEXT('part definition',#435,'mechanical');
#437=PRODUCT('FL-16KF-1_8BSPM','FL-50KF-1BSPF',$,(#436));
#438=PRESENTATION_STYLE_ASSIGNMENT((#439));
#439=SURFACE_STYLE_USAGE(.BOTH.,#442);
#440=SURFACE_STYLE_RENDERING_WITH_PROPERTIES($,#446,(#441));
#441=SURFACE_STYLE_TRANSPARENT(1.);
#442=SURFACE_SIDE_STYLE('',(#443,#440));
#443=SURFACE_STYLE_FILL_AREA(#444);
#444=FILL_AREA_STYLE('',(#445));
#445=FILL_AREA_STYLE_COLOUR('',#446);
#446=COLOUR_RGB('',0.745098039215686,0.737254901960784,0.729411764705882);
ENDSEC;
END-ISO-10303-21;
