ISO-10303-21;
HEADER;
/* Generated by software containing ST-Developer
 * from STEP Tools, Inc. (www.steptools.com) 
 */

FILE_DESCRIPTION(
/* description */ (''),
/* implementation_level */ '2;1');

FILE_NAME(
/* name */ 
'G:\\FLANGES & FITTINGS\\BSP Adapters\\Step Files\\FL-40KF-1_8BSPM.stp',

/* time_stamp */ '2019-03-11T13:50:25+00:00',
/* author */ ('paul'),
/* organization */ (''),
/* preprocessor_version */ 'ST-DEVELOPER v17.2',
/* originating_system */ 'Autodesk Inventor 2019',
/* authorisation */ '');

FILE_SCHEMA (('AUTOMOTIVE_DESIGN { 1 0 10303 214 3 1 1 }'));
ENDSEC;

DATA;
#10=MECHANICAL_DESIGN_GEOMETRIC_PRESENTATION_REPRESENTATION('',(#13),#557);
#11=SHAPE_REPRESENTATION_RELATIONSHIP('SRR','None',#564,#12);
#12=ADVANCED_BREP_SHAPE_REPRESENTATION('',(#14),#556);
#13=STYLED_ITEM('',(#573),#14);
#14=MANIFOLD_SOLID_BREP('Solid1',#297);
#15=FACE_BOUND('',#77,.T.);
#16=FACE_BOUND('',#82,.T.);
#17=FACE_BOUND('',#85,.T.);
#18=FACE_BOUND('',#88,.T.);
#19=CYLINDRICAL_SURFACE('',#326,27.5);
#20=CYLINDRICAL_SURFACE('',#337,6.4);
#21=CYLINDRICAL_SURFACE('',#343,4.95);
#22=CYLINDRICAL_SURFACE('',#349,2.35);
#23=CYLINDRICAL_SURFACE('',#355,20.6);
#24=CIRCLE('',#324,6.4);
#25=CIRCLE('',#325,4.95);
#26=CIRCLE('',#327,27.5);
#27=CIRCLE('',#328,27.5);
#28=CIRCLE('',#329,27.5);
#29=CIRCLE('',#330,27.5);
#30=CIRCLE('',#332,20.0358983848623);
#31=CIRCLE('',#333,20.0358983848623);
#32=CIRCLE('',#335,6.39999999999999);
#33=CIRCLE('',#336,6.39999999999999);
#34=CIRCLE('',#338,6.4);
#35=CIRCLE('',#339,6.4);
#36=CIRCLE('',#341,4.95);
#37=CIRCLE('',#342,4.95);
#38=CIRCLE('',#344,4.94999999999999);
#39=CIRCLE('',#345,4.94999999999999);
#40=CIRCLE('',#347,2.35);
#41=CIRCLE('',#348,2.35);
#42=CIRCLE('',#350,2.35);
#43=CIRCLE('',#351,2.35);
#44=CIRCLE('',#353,20.6);
#45=CIRCLE('',#354,20.6);
#46=CIRCLE('',#356,20.6);
#47=CIRCLE('',#357,20.6);
#48=CONICAL_SURFACE('',#323,5.675,0.785398163397448);
#49=CONICAL_SURFACE('',#331,23.7679491924312,1.30899693899575);
#50=CONICAL_SURFACE('',#340,5.675,0.785398163397448);
#51=ELLIPSE('',#319,9.0509667991878,6.4);
#52=ELLIPSE('',#322,9.0509667991878,6.4);
#53=FACE_OUTER_BOUND('',#69,.T.);
#54=FACE_OUTER_BOUND('',#70,.T.);
#55=FACE_OUTER_BOUND('',#71,.T.);
#56=FACE_OUTER_BOUND('',#72,.T.);
#57=FACE_OUTER_BOUND('',#73,.T.);
#58=FACE_OUTER_BOUND('',#74,.T.);
#59=FACE_OUTER_BOUND('',#75,.T.);
#60=FACE_OUTER_BOUND('',#76,.T.);
#61=FACE_OUTER_BOUND('',#78,.T.);
#62=FACE_OUTER_BOUND('',#79,.T.);
#63=FACE_OUTER_BOUND('',#80,.T.);
#64=FACE_OUTER_BOUND('',#81,.T.);
#65=FACE_OUTER_BOUND('',#83,.T.);
#66=FACE_OUTER_BOUND('',#84,.T.);
#67=FACE_OUTER_BOUND('',#86,.T.);
#68=FACE_OUTER_BOUND('',#87,.T.);
#69=EDGE_LOOP('',(#189,#190,#191,#192,#193));
#70=EDGE_LOOP('',(#194,#195));
#71=EDGE_LOOP('',(#196,#197,#198,#199,#200));
#72=EDGE_LOOP('',(#201,#202));
#73=EDGE_LOOP('',(#203,#204,#205,#206));
#74=EDGE_LOOP('',(#207,#208,#209,#210,#211,#212));
#75=EDGE_LOOP('',(#213,#214,#215,#216,#217,#218));
#76=EDGE_LOOP('',(#219,#220));
#77=EDGE_LOOP('',(#221,#222));
#78=EDGE_LOOP('',(#223,#224,#225,#226,#227,#228,#229,#230,#231,#232,#233,
#234,#235));
#79=EDGE_LOOP('',(#236,#237,#238,#239,#240,#241));
#80=EDGE_LOOP('',(#242,#243,#244,#245,#246,#247,#248));
#81=EDGE_LOOP('',(#249,#250));
#82=EDGE_LOOP('',(#251,#252));
#83=EDGE_LOOP('',(#253,#254,#255,#256,#257,#258));
#84=EDGE_LOOP('',(#259,#260));
#85=EDGE_LOOP('',(#261,#262));
#86=EDGE_LOOP('',(#263,#264,#265,#266,#267,#268));
#87=EDGE_LOOP('',(#269,#270));
#88=EDGE_LOOP('',(#271,#272));
#89=(
BOUNDED_CURVE()
B_SPLINE_CURVE(2,(#467,#468,#469),.UNSPECIFIED.,.F.,.F.)
B_SPLINE_CURVE_WITH_KNOTS((3,3),(0.435251748658393,0.870503497316787),
 .UNSPECIFIED.)
CURVE()
GEOMETRIC_REPRESENTATION_ITEM()
RATIONAL_B_SPLINE_CURVE((1.,1.07073089357908,1.))
REPRESENTATION_ITEM('')
);
#90=(
BOUNDED_CURVE()
B_SPLINE_CURVE(2,(#470,#471,#472),.UNSPECIFIED.,.F.,.F.)
B_SPLINE_CURVE_WITH_KNOTS((3,3),(0.,0.435251748658393),.UNSPECIFIED.)
CURVE()
GEOMETRIC_REPRESENTATION_ITEM()
RATIONAL_B_SPLINE_CURVE((1.,1.07073089357908,1.))
REPRESENTATION_ITEM('')
);
#91=(
BOUNDED_CURVE()
B_SPLINE_CURVE(2,(#484,#485,#486),.UNSPECIFIED.,.F.,.F.)
B_SPLINE_CURVE_WITH_KNOTS((3,3),(0.435251748658393,0.870503497316787),
 .UNSPECIFIED.)
CURVE()
GEOMETRIC_REPRESENTATION_ITEM()
RATIONAL_B_SPLINE_CURVE((1.,1.07073089357908,1.))
REPRESENTATION_ITEM('')
);
#92=(
BOUNDED_CURVE()
B_SPLINE_CURVE(2,(#487,#488,#489),.UNSPECIFIED.,.F.,.F.)
B_SPLINE_CURVE_WITH_KNOTS((3,3),(0.,0.435251748658393),.UNSPECIFIED.)
CURVE()
GEOMETRIC_REPRESENTATION_ITEM()
RATIONAL_B_SPLINE_CURVE((1.,1.07073089357908,1.))
REPRESENTATION_ITEM('')
);
#93=LINE('',#461,#105);
#94=LINE('',#463,#106);
#95=LINE('',#465,#107);
#96=LINE('',#478,#108);
#97=LINE('',#480,#109);
#98=LINE('',#482,#110);
#99=LINE('',#501,#111);
#100=LINE('',#510,#112);
#101=LINE('',#519,#113);
#102=LINE('',#530,#114);
#103=LINE('',#538,#115);
#104=LINE('',#549,#116);
#105=VECTOR('',#363,10.);
#106=VECTOR('',#364,10.);
#107=VECTOR('',#365,10.);
#108=VECTOR('',#372,10.);
#109=VECTOR('',#373,10.);
#110=VECTOR('',#374,10.);
#111=VECTOR('',#391,27.5);
#112=VECTOR('',#402,23.7679491924312);
#113=VECTOR('',#413,6.4);
#114=VECTOR('',#428,4.95);
#115=VECTOR('',#437,2.35);
#116=VECTOR('',#450,20.6);
#117=VERTEX_POINT('',#459);
#118=VERTEX_POINT('',#460);
#119=VERTEX_POINT('',#462);
#120=VERTEX_POINT('',#464);
#121=VERTEX_POINT('',#466);
#122=VERTEX_POINT('',#476);
#123=VERTEX_POINT('',#477);
#124=VERTEX_POINT('',#479);
#125=VERTEX_POINT('',#481);
#126=VERTEX_POINT('',#483);
#127=VERTEX_POINT('',#496);
#128=VERTEX_POINT('',#497);
#129=VERTEX_POINT('',#500);
#130=VERTEX_POINT('',#502);
#131=VERTEX_POINT('',#506);
#132=VERTEX_POINT('',#507);
#133=VERTEX_POINT('',#512);
#134=VERTEX_POINT('',#513);
#135=VERTEX_POINT('',#517);
#136=VERTEX_POINT('',#522);
#137=VERTEX_POINT('',#526);
#138=VERTEX_POINT('',#527);
#139=VERTEX_POINT('',#532);
#140=VERTEX_POINT('',#533);
#141=VERTEX_POINT('',#537);
#142=VERTEX_POINT('',#539);
#143=VERTEX_POINT('',#543);
#144=VERTEX_POINT('',#544);
#145=VERTEX_POINT('',#548);
#146=VERTEX_POINT('',#550);
#147=EDGE_CURVE('',#117,#118,#93,.T.);
#148=EDGE_CURVE('',#119,#117,#94,.T.);
#149=EDGE_CURVE('',#120,#119,#95,.T.);
#150=EDGE_CURVE('',#121,#120,#89,.T.);
#151=EDGE_CURVE('',#118,#121,#90,.T.);
#152=EDGE_CURVE('',#119,#117,#51,.T.);
#153=EDGE_CURVE('',#122,#123,#96,.T.);
#154=EDGE_CURVE('',#122,#124,#97,.T.);
#155=EDGE_CURVE('',#125,#124,#98,.T.);
#156=EDGE_CURVE('',#126,#125,#91,.T.);
#157=EDGE_CURVE('',#123,#126,#92,.T.);
#158=EDGE_CURVE('',#124,#122,#52,.T.);
#159=EDGE_CURVE('',#120,#123,#24,.T.);
#160=EDGE_CURVE('',#121,#126,#25,.T.);
#161=EDGE_CURVE('',#127,#128,#26,.T.);
#162=EDGE_CURVE('',#128,#127,#27,.T.);
#163=EDGE_CURVE('',#128,#129,#99,.T.);
#164=EDGE_CURVE('',#129,#130,#28,.T.);
#165=EDGE_CURVE('',#130,#129,#29,.T.);
#166=EDGE_CURVE('',#131,#132,#30,.T.);
#167=EDGE_CURVE('',#132,#131,#31,.T.);
#168=EDGE_CURVE('',#132,#128,#100,.T.);
#169=EDGE_CURVE('',#133,#134,#32,.T.);
#170=EDGE_CURVE('',#134,#133,#33,.T.);
#171=EDGE_CURVE('',#135,#118,#34,.T.);
#172=EDGE_CURVE('',#135,#134,#101,.T.);
#173=EDGE_CURVE('',#125,#135,#35,.T.);
#174=EDGE_CURVE('',#136,#121,#36,.T.);
#175=EDGE_CURVE('',#126,#136,#37,.T.);
#176=EDGE_CURVE('',#137,#138,#38,.T.);
#177=EDGE_CURVE('',#138,#137,#39,.T.);
#178=EDGE_CURVE('',#138,#136,#102,.T.);
#179=EDGE_CURVE('',#139,#140,#40,.T.);
#180=EDGE_CURVE('',#140,#139,#41,.T.);
#181=EDGE_CURVE('',#140,#141,#103,.T.);
#182=EDGE_CURVE('',#142,#141,#42,.T.);
#183=EDGE_CURVE('',#141,#142,#43,.T.);
#184=EDGE_CURVE('',#143,#144,#44,.T.);
#185=EDGE_CURVE('',#144,#143,#45,.T.);
#186=EDGE_CURVE('',#144,#145,#104,.T.);
#187=EDGE_CURVE('',#146,#145,#46,.T.);
#188=EDGE_CURVE('',#145,#146,#47,.T.);
#189=ORIENTED_EDGE('',*,*,#147,.F.);
#190=ORIENTED_EDGE('',*,*,#148,.F.);
#191=ORIENTED_EDGE('',*,*,#149,.F.);
#192=ORIENTED_EDGE('',*,*,#150,.F.);
#193=ORIENTED_EDGE('',*,*,#151,.F.);
#194=ORIENTED_EDGE('',*,*,#152,.F.);
#195=ORIENTED_EDGE('',*,*,#148,.T.);
#196=ORIENTED_EDGE('',*,*,#153,.F.);
#197=ORIENTED_EDGE('',*,*,#154,.T.);
#198=ORIENTED_EDGE('',*,*,#155,.F.);
#199=ORIENTED_EDGE('',*,*,#156,.F.);
#200=ORIENTED_EDGE('',*,*,#157,.F.);
#201=ORIENTED_EDGE('',*,*,#158,.F.);
#202=ORIENTED_EDGE('',*,*,#154,.F.);
#203=ORIENTED_EDGE('',*,*,#150,.T.);
#204=ORIENTED_EDGE('',*,*,#159,.T.);
#205=ORIENTED_EDGE('',*,*,#157,.T.);
#206=ORIENTED_EDGE('',*,*,#160,.F.);
#207=ORIENTED_EDGE('',*,*,#161,.F.);
#208=ORIENTED_EDGE('',*,*,#162,.F.);
#209=ORIENTED_EDGE('',*,*,#163,.T.);
#210=ORIENTED_EDGE('',*,*,#164,.T.);
#211=ORIENTED_EDGE('',*,*,#165,.T.);
#212=ORIENTED_EDGE('',*,*,#163,.F.);
#213=ORIENTED_EDGE('',*,*,#166,.F.);
#214=ORIENTED_EDGE('',*,*,#167,.F.);
#215=ORIENTED_EDGE('',*,*,#168,.T.);
#216=ORIENTED_EDGE('',*,*,#162,.T.);
#217=ORIENTED_EDGE('',*,*,#161,.T.);
#218=ORIENTED_EDGE('',*,*,#168,.F.);
#219=ORIENTED_EDGE('',*,*,#166,.T.);
#220=ORIENTED_EDGE('',*,*,#167,.T.);
#221=ORIENTED_EDGE('',*,*,#169,.F.);
#222=ORIENTED_EDGE('',*,*,#170,.F.);
#223=ORIENTED_EDGE('',*,*,#147,.T.);
#224=ORIENTED_EDGE('',*,*,#171,.F.);
#225=ORIENTED_EDGE('',*,*,#172,.T.);
#226=ORIENTED_EDGE('',*,*,#170,.T.);
#227=ORIENTED_EDGE('',*,*,#169,.T.);
#228=ORIENTED_EDGE('',*,*,#172,.F.);
#229=ORIENTED_EDGE('',*,*,#173,.F.);
#230=ORIENTED_EDGE('',*,*,#155,.T.);
#231=ORIENTED_EDGE('',*,*,#158,.T.);
#232=ORIENTED_EDGE('',*,*,#153,.T.);
#233=ORIENTED_EDGE('',*,*,#159,.F.);
#234=ORIENTED_EDGE('',*,*,#149,.T.);
#235=ORIENTED_EDGE('',*,*,#152,.T.);
#236=ORIENTED_EDGE('',*,*,#151,.T.);
#237=ORIENTED_EDGE('',*,*,#174,.F.);
#238=ORIENTED_EDGE('',*,*,#175,.F.);
#239=ORIENTED_EDGE('',*,*,#156,.T.);
#240=ORIENTED_EDGE('',*,*,#173,.T.);
#241=ORIENTED_EDGE('',*,*,#171,.T.);
#242=ORIENTED_EDGE('',*,*,#176,.F.);
#243=ORIENTED_EDGE('',*,*,#177,.F.);
#244=ORIENTED_EDGE('',*,*,#178,.T.);
#245=ORIENTED_EDGE('',*,*,#174,.T.);
#246=ORIENTED_EDGE('',*,*,#160,.T.);
#247=ORIENTED_EDGE('',*,*,#175,.T.);
#248=ORIENTED_EDGE('',*,*,#178,.F.);
#249=ORIENTED_EDGE('',*,*,#176,.T.);
#250=ORIENTED_EDGE('',*,*,#177,.T.);
#251=ORIENTED_EDGE('',*,*,#179,.F.);
#252=ORIENTED_EDGE('',*,*,#180,.F.);
#253=ORIENTED_EDGE('',*,*,#179,.T.);
#254=ORIENTED_EDGE('',*,*,#181,.T.);
#255=ORIENTED_EDGE('',*,*,#182,.F.);
#256=ORIENTED_EDGE('',*,*,#183,.F.);
#257=ORIENTED_EDGE('',*,*,#181,.F.);
#258=ORIENTED_EDGE('',*,*,#180,.T.);
#259=ORIENTED_EDGE('',*,*,#184,.F.);
#260=ORIENTED_EDGE('',*,*,#185,.F.);
#261=ORIENTED_EDGE('',*,*,#182,.T.);
#262=ORIENTED_EDGE('',*,*,#183,.T.);
#263=ORIENTED_EDGE('',*,*,#184,.T.);
#264=ORIENTED_EDGE('',*,*,#186,.T.);
#265=ORIENTED_EDGE('',*,*,#187,.F.);
#266=ORIENTED_EDGE('',*,*,#188,.F.);
#267=ORIENTED_EDGE('',*,*,#186,.F.);
#268=ORIENTED_EDGE('',*,*,#185,.T.);
#269=ORIENTED_EDGE('',*,*,#165,.F.);
#270=ORIENTED_EDGE('',*,*,#164,.F.);
#271=ORIENTED_EDGE('',*,*,#187,.T.);
#272=ORIENTED_EDGE('',*,*,#188,.T.);
#273=PLANE('',#317);
#274=PLANE('',#318);
#275=PLANE('',#320);
#276=PLANE('',#321);
#277=PLANE('',#334);
#278=PLANE('',#346);
#279=PLANE('',#352);
#280=PLANE('',#358);
#281=ADVANCED_FACE('',(#53),#273,.F.);
#282=ADVANCED_FACE('',(#54),#274,.F.);
#283=ADVANCED_FACE('',(#55),#275,.F.);
#284=ADVANCED_FACE('',(#56),#276,.F.);
#285=ADVANCED_FACE('',(#57),#48,.T.);
#286=ADVANCED_FACE('',(#58),#19,.T.);
#287=ADVANCED_FACE('',(#59),#49,.T.);
#288=ADVANCED_FACE('',(#60,#15),#277,.T.);
#289=ADVANCED_FACE('',(#61),#20,.T.);
#290=ADVANCED_FACE('',(#62),#50,.T.);
#291=ADVANCED_FACE('',(#63),#21,.T.);
#292=ADVANCED_FACE('',(#64,#16),#278,.T.);
#293=ADVANCED_FACE('',(#65),#22,.F.);
#294=ADVANCED_FACE('',(#66,#17),#279,.T.);
#295=ADVANCED_FACE('',(#67),#23,.F.);
#296=ADVANCED_FACE('',(#68,#18),#280,.T.);
#297=CLOSED_SHELL('',(#281,#282,#283,#284,#285,#286,#287,#288,#289,#290,
#291,#292,#293,#294,#295,#296));
#298=DERIVED_UNIT_ELEMENT(#300,1.);
#299=DERIVED_UNIT_ELEMENT(#559,3.);
#300=(
MASS_UNIT()
NAMED_UNIT(*)
SI_UNIT($,.GRAM.)
);
#301=DERIVED_UNIT((#298,#299));
#302=MEASURE_REPRESENTATION_ITEM('density measure',
POSITIVE_RATIO_MEASURE(8.),#301);
#303=PROPERTY_DEFINITION_REPRESENTATION(#308,#305);
#304=PROPERTY_DEFINITION_REPRESENTATION(#309,#306);
#305=REPRESENTATION('material name',(#307),#556);
#306=REPRESENTATION('density',(#302),#556);
#307=DESCRIPTIVE_REPRESENTATION_ITEM('Stainless Steel AISI 304',
'Stainless Steel AISI 304');
#308=PROPERTY_DEFINITION('material property','material name',#566);
#309=PROPERTY_DEFINITION('material property','density of part',#566);
#310=DATE_TIME_ROLE('creation_date');
#311=APPLIED_DATE_AND_TIME_ASSIGNMENT(#312,#310,(#566));
#312=DATE_AND_TIME(#313,#314);
#313=CALENDAR_DATE(2014,20,11);
#314=LOCAL_TIME(11,0,44.,#315);
#315=COORDINATED_UNIVERSAL_TIME_OFFSET(0,0,.BEHIND.);
#316=AXIS2_PLACEMENT_3D('placement',#457,#359,#360);
#317=AXIS2_PLACEMENT_3D('',#458,#361,#362);
#318=AXIS2_PLACEMENT_3D('',#473,#366,#367);
#319=AXIS2_PLACEMENT_3D('',#474,#368,#369);
#320=AXIS2_PLACEMENT_3D('',#475,#370,#371);
#321=AXIS2_PLACEMENT_3D('',#490,#375,#376);
#322=AXIS2_PLACEMENT_3D('',#491,#377,#378);
#323=AXIS2_PLACEMENT_3D('',#492,#379,#380);
#324=AXIS2_PLACEMENT_3D('',#493,#381,#382);
#325=AXIS2_PLACEMENT_3D('',#494,#383,#384);
#326=AXIS2_PLACEMENT_3D('',#495,#385,#386);
#327=AXIS2_PLACEMENT_3D('',#498,#387,#388);
#328=AXIS2_PLACEMENT_3D('',#499,#389,#390);
#329=AXIS2_PLACEMENT_3D('',#503,#392,#393);
#330=AXIS2_PLACEMENT_3D('',#504,#394,#395);
#331=AXIS2_PLACEMENT_3D('',#505,#396,#397);
#332=AXIS2_PLACEMENT_3D('',#508,#398,#399);
#333=AXIS2_PLACEMENT_3D('',#509,#400,#401);
#334=AXIS2_PLACEMENT_3D('',#511,#403,#404);
#335=AXIS2_PLACEMENT_3D('',#514,#405,#406);
#336=AXIS2_PLACEMENT_3D('',#515,#407,#408);
#337=AXIS2_PLACEMENT_3D('',#516,#409,#410);
#338=AXIS2_PLACEMENT_3D('',#518,#411,#412);
#339=AXIS2_PLACEMENT_3D('',#520,#414,#415);
#340=AXIS2_PLACEMENT_3D('',#521,#416,#417);
#341=AXIS2_PLACEMENT_3D('',#523,#418,#419);
#342=AXIS2_PLACEMENT_3D('',#524,#420,#421);
#343=AXIS2_PLACEMENT_3D('',#525,#422,#423);
#344=AXIS2_PLACEMENT_3D('',#528,#424,#425);
#345=AXIS2_PLACEMENT_3D('',#529,#426,#427);
#346=AXIS2_PLACEMENT_3D('',#531,#429,#430);
#347=AXIS2_PLACEMENT_3D('',#534,#431,#432);
#348=AXIS2_PLACEMENT_3D('',#535,#433,#434);
#349=AXIS2_PLACEMENT_3D('',#536,#435,#436);
#350=AXIS2_PLACEMENT_3D('',#540,#438,#439);
#351=AXIS2_PLACEMENT_3D('',#541,#440,#441);
#352=AXIS2_PLACEMENT_3D('',#542,#442,#443);
#353=AXIS2_PLACEMENT_3D('',#545,#444,#445);
#354=AXIS2_PLACEMENT_3D('',#546,#446,#447);
#355=AXIS2_PLACEMENT_3D('',#547,#448,#449);
#356=AXIS2_PLACEMENT_3D('',#551,#451,#452);
#357=AXIS2_PLACEMENT_3D('',#552,#453,#454);
#358=AXIS2_PLACEMENT_3D('',#553,#455,#456);
#359=DIRECTION('axis',(0.,0.,1.));
#360=DIRECTION('refdir',(1.,0.,0.));
#361=DIRECTION('center_axis',(0.,0.,1.));
#362=DIRECTION('ref_axis',(0.,-1.,0.));
#363=DIRECTION('',(0.,1.,0.));
#364=DIRECTION('',(1.,0.,0.));
#365=DIRECTION('',(0.,-1.,0.));
#366=DIRECTION('center_axis',(0.,-0.707106781186548,0.707106781186548));
#367=DIRECTION('ref_axis',(0.,-0.707106781186548,-0.707106781186548));
#368=DIRECTION('center_axis',(0.,-0.707106781186548,0.707106781186548));
#369=DIRECTION('ref_axis',(0.,0.707106781186548,0.707106781186548));
#370=DIRECTION('center_axis',(0.,0.,-1.));
#371=DIRECTION('ref_axis',(0.,1.,0.));
#372=DIRECTION('',(0.,1.,0.));
#373=DIRECTION('',(1.,0.,0.));
#374=DIRECTION('',(0.,-1.,0.));
#375=DIRECTION('center_axis',(0.,-0.707106781186548,-0.707106781186548));
#376=DIRECTION('ref_axis',(0.,0.707106781186548,-0.707106781186548));
#377=DIRECTION('center_axis',(0.,-0.707106781186548,-0.707106781186548));
#378=DIRECTION('ref_axis',(0.,-0.707106781186548,0.707106781186548));
#379=DIRECTION('center_axis',(0.,-1.,0.));
#380=DIRECTION('ref_axis',(-1.,0.,0.));
#381=DIRECTION('center_axis',(0.,1.,0.));
#382=DIRECTION('ref_axis',(1.,0.,0.));
#383=DIRECTION('center_axis',(0.,1.,0.));
#384=DIRECTION('ref_axis',(1.,0.,0.));
#385=DIRECTION('center_axis',(0.,1.,0.));
#386=DIRECTION('ref_axis',(-1.,0.,0.));
#387=DIRECTION('center_axis',(0.,1.,0.));
#388=DIRECTION('ref_axis',(1.,0.,0.));
#389=DIRECTION('center_axis',(0.,1.,0.));
#390=DIRECTION('ref_axis',(1.,0.,0.));
#391=DIRECTION('',(0.,-1.,0.));
#392=DIRECTION('center_axis',(0.,1.,0.));
#393=DIRECTION('ref_axis',(1.,0.,0.));
#394=DIRECTION('center_axis',(0.,1.,0.));
#395=DIRECTION('ref_axis',(1.,0.,0.));
#396=DIRECTION('center_axis',(0.,-1.,0.));
#397=DIRECTION('ref_axis',(-1.,0.,0.));
#398=DIRECTION('center_axis',(0.,1.,0.));
#399=DIRECTION('ref_axis',(1.,0.,0.));
#400=DIRECTION('center_axis',(0.,1.,0.));
#401=DIRECTION('ref_axis',(1.,0.,0.));
#402=DIRECTION('',(0.965925826289068,-0.258819045102521,-1.18291797137867E-16));
#403=DIRECTION('center_axis',(0.,1.,0.));
#404=DIRECTION('ref_axis',(0.,0.,1.));
#405=DIRECTION('center_axis',(0.,1.,0.));
#406=DIRECTION('ref_axis',(1.,0.,0.));
#407=DIRECTION('center_axis',(0.,1.,0.));
#408=DIRECTION('ref_axis',(1.,0.,0.));
#409=DIRECTION('center_axis',(0.,1.,0.));
#410=DIRECTION('ref_axis',(-1.,0.,0.));
#411=DIRECTION('center_axis',(0.,1.,0.));
#412=DIRECTION('ref_axis',(1.,0.,0.));
#413=DIRECTION('',(0.,-1.,0.));
#414=DIRECTION('center_axis',(0.,1.,0.));
#415=DIRECTION('ref_axis',(1.,0.,0.));
#416=DIRECTION('center_axis',(0.,-1.,0.));
#417=DIRECTION('ref_axis',(1.,0.,-1.22464679914735E-16));
#418=DIRECTION('center_axis',(0.,1.,0.));
#419=DIRECTION('ref_axis',(1.,0.,0.));
#420=DIRECTION('center_axis',(0.,1.,0.));
#421=DIRECTION('ref_axis',(1.,0.,0.));
#422=DIRECTION('center_axis',(0.,1.,0.));
#423=DIRECTION('ref_axis',(-1.,0.,0.));
#424=DIRECTION('center_axis',(0.,1.,0.));
#425=DIRECTION('ref_axis',(1.,0.,0.));
#426=DIRECTION('center_axis',(0.,1.,0.));
#427=DIRECTION('ref_axis',(1.,0.,0.));
#428=DIRECTION('',(0.,-1.,0.));
#429=DIRECTION('center_axis',(0.,1.,0.));
#430=DIRECTION('ref_axis',(0.,0.,1.));
#431=DIRECTION('center_axis',(0.,1.,0.));
#432=DIRECTION('ref_axis',(1.,0.,0.));
#433=DIRECTION('center_axis',(0.,1.,0.));
#434=DIRECTION('ref_axis',(1.,0.,0.));
#435=DIRECTION('center_axis',(0.,1.,0.));
#436=DIRECTION('ref_axis',(-1.,0.,0.));
#437=DIRECTION('',(0.,-1.,0.));
#438=DIRECTION('center_axis',(0.,1.,0.));
#439=DIRECTION('ref_axis',(1.,0.,0.));
#440=DIRECTION('center_axis',(0.,1.,0.));
#441=DIRECTION('ref_axis',(1.,0.,0.));
#442=DIRECTION('center_axis',(0.,-1.,0.));
#443=DIRECTION('ref_axis',(0.,0.,-1.));
#444=DIRECTION('center_axis',(0.,1.,0.));
#445=DIRECTION('ref_axis',(1.,0.,0.));
#446=DIRECTION('center_axis',(0.,1.,0.));
#447=DIRECTION('ref_axis',(1.,0.,0.));
#448=DIRECTION('center_axis',(0.,1.,0.));
#449=DIRECTION('ref_axis',(-1.,0.,0.));
#450=DIRECTION('',(0.,-1.,0.));
#451=DIRECTION('center_axis',(0.,1.,0.));
#452=DIRECTION('ref_axis',(1.,0.,0.));
#453=DIRECTION('center_axis',(0.,1.,0.));
#454=DIRECTION('ref_axis',(1.,0.,0.));
#455=DIRECTION('center_axis',(0.,-1.,0.));
#456=DIRECTION('ref_axis',(0.,0.,-1.));
#457=CARTESIAN_POINT('',(0.,0.,0.));
#458=CARTESIAN_POINT('Origin',(-6.4,24.95,-4.95));
#459=CARTESIAN_POINT('',(4.05678444090883,12.,-4.95));
#460=CARTESIAN_POINT('',(4.05678444090884,23.5,-4.95));
#461=CARTESIAN_POINT('',(4.05678444090883,14.25,-4.95));
#462=CARTESIAN_POINT('',(-4.05678444090883,12.,-4.95));
#463=CARTESIAN_POINT('',(-6.4,12.,-4.95));
#464=CARTESIAN_POINT('',(-4.05678444090884,23.5,-4.95));
#465=CARTESIAN_POINT('',(-4.05678444090883,14.25,-4.95));
#466=CARTESIAN_POINT('',(0.,24.95,-4.95));
#467=CARTESIAN_POINT('Ctrl Pts',(0.,24.95,-4.95));
#468=CARTESIAN_POINT('Ctrl Pts',(-1.76925841255496,24.95,-4.95));
#469=CARTESIAN_POINT('Ctrl Pts',(-4.05678444090883,23.5,-4.95));
#470=CARTESIAN_POINT('Ctrl Pts',(4.05678444090883,23.5,-4.95));
#471=CARTESIAN_POINT('Ctrl Pts',(1.76925841255496,24.95,-4.95));
#472=CARTESIAN_POINT('Ctrl Pts',(0.,24.95,-4.95));
#473=CARTESIAN_POINT('Origin',(-6.4,12.,-4.95));
#474=CARTESIAN_POINT('Origin',(0.,16.95,0.));
#475=CARTESIAN_POINT('Origin',(-6.4,12.,4.95));
#476=CARTESIAN_POINT('',(-4.05678444090883,12.,4.95));
#477=CARTESIAN_POINT('',(-4.05678444090884,23.5,4.95));
#478=CARTESIAN_POINT('',(-4.05678444090883,14.25,4.95));
#479=CARTESIAN_POINT('',(4.05678444090883,12.,4.95));
#480=CARTESIAN_POINT('',(-6.4,12.,4.95));
#481=CARTESIAN_POINT('',(4.05678444090884,23.5,4.95));
#482=CARTESIAN_POINT('',(4.05678444090883,14.25,4.95));
#483=CARTESIAN_POINT('',(0.,24.95,4.95));
#484=CARTESIAN_POINT('Ctrl Pts',(0.,24.95,4.95));
#485=CARTESIAN_POINT('Ctrl Pts',(1.76925841255496,24.95,4.95));
#486=CARTESIAN_POINT('Ctrl Pts',(4.05678444090883,23.5,4.95));
#487=CARTESIAN_POINT('Ctrl Pts',(-4.05678444090883,23.5,4.95));
#488=CARTESIAN_POINT('Ctrl Pts',(-1.76925841255496,24.95,4.95));
#489=CARTESIAN_POINT('Ctrl Pts',(0.,24.95,4.95));
#490=CARTESIAN_POINT('Origin',(-6.4,10.55,6.4));
#491=CARTESIAN_POINT('Origin',(0.,16.95,0.));
#492=CARTESIAN_POINT('Origin',(0.,24.225,0.));
#493=CARTESIAN_POINT('Origin',(0.,23.5,0.));
#494=CARTESIAN_POINT('Origin',(0.,24.95,0.));
#495=CARTESIAN_POINT('Origin',(0.,1.5,0.));
#496=CARTESIAN_POINT('',(-27.5,3.,0.));
#497=CARTESIAN_POINT('',(27.5,3.,-3.36777869765522E-15));
#498=CARTESIAN_POINT('Origin',(0.,3.,0.));
#499=CARTESIAN_POINT('Origin',(0.,3.,0.));
#500=CARTESIAN_POINT('',(27.5,-2.4980018054066E-15,-3.36777869765522E-15));
#501=CARTESIAN_POINT('',(27.5,1.5,-3.36777869765522E-15));
#502=CARTESIAN_POINT('',(-27.5,-2.44929359829471E-15,0.));
#503=CARTESIAN_POINT('Origin',(0.,-2.44929359829471E-15,0.));
#504=CARTESIAN_POINT('Origin',(0.,-2.44929359829471E-15,0.));
#505=CARTESIAN_POINT('Origin',(0.,3.99999999999999,0.));
#506=CARTESIAN_POINT('',(-20.0358983848623,4.99999999999998,0.));
#507=CARTESIAN_POINT('',(20.0358983848623,4.99999999999998,-2.45368988250633E-15));
#508=CARTESIAN_POINT('Origin',(0.,4.99999999999998,0.));
#509=CARTESIAN_POINT('Origin',(0.,4.99999999999998,0.));
#510=CARTESIAN_POINT('',(23.7679491924312,3.99999999999999,-2.91073429008077E-15));
#511=CARTESIAN_POINT('Origin',(-6.39999999999999,4.99999999999998,0.));
#512=CARTESIAN_POINT('',(-6.39999999999999,4.99999999999998,0.));
#513=CARTESIAN_POINT('',(6.4,4.99999999999998,-7.83773951454306E-16));
#514=CARTESIAN_POINT('Origin',(0.,4.99999999999998,0.));
#515=CARTESIAN_POINT('Origin',(0.,4.99999999999998,0.));
#516=CARTESIAN_POINT('Origin',(0.,14.25,0.));
#517=CARTESIAN_POINT('',(6.4,23.5,-7.83773951454306E-16));
#518=CARTESIAN_POINT('Origin',(0.,23.5,0.));
#519=CARTESIAN_POINT('',(6.4,14.25,-7.83773951454306E-16));
#520=CARTESIAN_POINT('Origin',(0.,23.5,0.));
#521=CARTESIAN_POINT('Origin',(0.,24.225,0.));
#522=CARTESIAN_POINT('',(4.95,24.95,-6.06200165577939E-16));
#523=CARTESIAN_POINT('Origin',(0.,24.95,0.));
#524=CARTESIAN_POINT('Origin',(0.,24.95,0.));
#525=CARTESIAN_POINT('Origin',(0.,29.975,0.));
#526=CARTESIAN_POINT('',(-4.94999999999999,35.,0.));
#527=CARTESIAN_POINT('',(4.95,35.,-6.06200165577939E-16));
#528=CARTESIAN_POINT('Origin',(0.,35.,0.));
#529=CARTESIAN_POINT('Origin',(0.,35.,0.));
#530=CARTESIAN_POINT('',(4.95,29.975,-6.06200165577939E-16));
#531=CARTESIAN_POINT('Origin',(-2.35,35.,0.));
#532=CARTESIAN_POINT('',(-2.35,35.,0.));
#533=CARTESIAN_POINT('',(2.35,35.,-2.87791997799628E-16));
#534=CARTESIAN_POINT('Origin',(0.,35.,0.));
#535=CARTESIAN_POINT('Origin',(0.,35.,0.));
#536=CARTESIAN_POINT('Origin',(0.,18.75,0.));
#537=CARTESIAN_POINT('',(2.35,2.5,-2.87791997799628E-16));
#538=CARTESIAN_POINT('',(2.35,18.75,-2.87791997799628E-16));
#539=CARTESIAN_POINT('',(-2.35,2.5,0.));
#540=CARTESIAN_POINT('Origin',(0.,2.5,0.));
#541=CARTESIAN_POINT('Origin',(0.,2.5,0.));
#542=CARTESIAN_POINT('Origin',(-20.6,2.5,0.));
#543=CARTESIAN_POINT('',(-20.6,2.5,0.));
#544=CARTESIAN_POINT('',(20.6,2.5,-2.52277240624355E-15));
#545=CARTESIAN_POINT('Origin',(0.,2.5,0.));
#546=CARTESIAN_POINT('Origin',(0.,2.5,0.));
#547=CARTESIAN_POINT('Origin',(0.,1.25,0.));
#548=CARTESIAN_POINT('',(20.6,-1.66533453693773E-15,-2.52277240624355E-15));
#549=CARTESIAN_POINT('',(20.6,1.25,-2.52277240624355E-15));
#550=CARTESIAN_POINT('',(-20.6,-1.66533453693773E-15,0.));
#551=CARTESIAN_POINT('Origin',(0.,-1.66533453693773E-15,0.));
#552=CARTESIAN_POINT('Origin',(0.,-1.66533453693773E-15,0.));
#553=CARTESIAN_POINT('Origin',(-27.5,-2.44929359829471E-15,0.));
#554=UNCERTAINTY_MEASURE_WITH_UNIT(LENGTH_MEASURE(0.01),#558,
'DISTANCE_ACCURACY_VALUE',
'Maximum model space distance between geometric entities at asserted c
onnectivities');
#555=UNCERTAINTY_MEASURE_WITH_UNIT(LENGTH_MEASURE(0.01),#558,
'DISTANCE_ACCURACY_VALUE',
'Maximum model space distance between geometric entities at asserted c
onnectivities');
#556=(
GEOMETRIC_REPRESENTATION_CONTEXT(3)
GLOBAL_UNCERTAINTY_ASSIGNED_CONTEXT((#554))
GLOBAL_UNIT_ASSIGNED_CONTEXT((#558,#560,#561))
REPRESENTATION_CONTEXT('','3D')
);
#557=(
GEOMETRIC_REPRESENTATION_CONTEXT(3)
GLOBAL_UNCERTAINTY_ASSIGNED_CONTEXT((#555))
GLOBAL_UNIT_ASSIGNED_CONTEXT((#558,#560,#561))
REPRESENTATION_CONTEXT('','3D')
);
#558=(
LENGTH_UNIT()
NAMED_UNIT(*)
SI_UNIT(.MILLI.,.METRE.)
);
#559=(
LENGTH_UNIT()
NAMED_UNIT(*)
SI_UNIT(.CENTI.,.METRE.)
);
#560=(
NAMED_UNIT(*)
PLANE_ANGLE_UNIT()
SI_UNIT($,.RADIAN.)
);
#561=(
NAMED_UNIT(*)
SI_UNIT($,.STERADIAN.)
SOLID_ANGLE_UNIT()
);
#562=SHAPE_DEFINITION_REPRESENTATION(#563,#564);
#563=PRODUCT_DEFINITION_SHAPE('',$,#566);
#564=SHAPE_REPRESENTATION('',(#316),#556);
#565=PRODUCT_DEFINITION_CONTEXT('part definition',#570,'design');
#566=PRODUCT_DEFINITION('FL-16KF-1_8BSPM','FL-40KF-1_8BSPM',#567,#565);
#567=PRODUCT_DEFINITION_FORMATION('',$,#572);
#568=PRODUCT_RELATED_PRODUCT_CATEGORY('FL-40KF-1_8BSPM',
'FL-40KF-1_8BSPM',(#572));
#569=APPLICATION_PROTOCOL_DEFINITION('international standard',
'automotive_design',2009,#570);
#570=APPLICATION_CONTEXT(
'Core Data for Automotive Mechanical Design Process');
#571=PRODUCT_CONTEXT('part definition',#570,'mechanical');
#572=PRODUCT('FL-16KF-1_8BSPM','FL-40KF-1_8BSPM',$,(#571));
#573=PRESENTATION_STYLE_ASSIGNMENT((#574));
#574=SURFACE_STYLE_USAGE(.BOTH.,#577);
#575=SURFACE_STYLE_RENDERING_WITH_PROPERTIES($,#581,(#576));
#576=SURFACE_STYLE_TRANSPARENT(1.);
#577=SURFACE_SIDE_STYLE('',(#578,#575));
#578=SURFACE_STYLE_FILL_AREA(#579);
#579=FILL_AREA_STYLE('',(#580));
#580=FILL_AREA_STYLE_COLOUR('',#581);
#581=COLOUR_RGB('',0.745098039215686,0.737254901960784,0.729411764705882);
ENDSEC;
END-ISO-10303-21;
