ISO-10303-21;
HEADER;
/* Generated by software containing ST-Developer
 * from STEP Tools, Inc. (www.steptools.com) 
 */

FILE_DESCRIPTION(
/* description */ (''),
/* implementation_level */ '2;1');

FILE_NAME(
/* name */ 
'G:\\FLANGES & FITTINGS\\BSP Adapters\\Step Files\\FL-40KF-1BSPM.stp',
/* time_stamp */ '2019-03-12T11:47:36+00:00',
/* author */ ('paul'),
/* organization */ (''),
/* preprocessor_version */ 'ST-DEVELOPER v17.2',
/* originating_system */ 'Autodesk Inventor 2019',
/* authorisation */ '');

FILE_SCHEMA (('AUTOMOTIVE_DESIGN { 1 0 10303 214 3 1 1 }'));
ENDSEC;

DATA;
#10=MECHANICAL_DESIGN_GEOMETRIC_PRESENTATION_REPRESENTATION('',(#13),#595);
#11=SHAPE_REPRESENTATION_RELATIONSHIP('SRR','None',#602,#12);
#12=ADVANCED_BREP_SHAPE_REPRESENTATION('',(#14),#594);
#13=STYLED_ITEM('',(#611),#14);
#14=MANIFOLD_SOLID_BREP('Solid1',#320);
#15=FACE_BOUND('',#89,.T.);
#16=FACE_BOUND('',#93,.T.);
#17=FACE_BOUND('',#96,.T.);
#18=FACE_BOUND('',#99,.T.);
#19=FACE_BOUND('',#102,.T.);
#20=ELLIPSE('',#345,28.2842712474619,20.);
#21=ELLIPSE('',#350,28.2842712474619,20.);
#22=CYLINDRICAL_SURFACE('',#344,20.);
#23=CYLINDRICAL_SURFACE('',#359,27.5);
#24=CYLINDRICAL_SURFACE('',#368,16.6);
#25=CYLINDRICAL_SURFACE('',#374,11.1);
#26=CYLINDRICAL_SURFACE('',#380,20.6);
#27=LINE('',#504,#41);
#28=LINE('',#506,#42);
#29=LINE('',#508,#43);
#30=LINE('',#513,#44);
#31=LINE('',#516,#45);
#32=LINE('',#520,#46);
#33=LINE('',#524,#47);
#34=LINE('',#537,#48);
#35=LINE('',#538,#49);
#36=LINE('',#552,#50);
#37=LINE('',#561,#51);
#38=LINE('',#568,#52);
#39=LINE('',#576,#53);
#40=LINE('',#587,#54);
#41=VECTOR('',#394,10.);
#42=VECTOR('',#395,10.);
#43=VECTOR('',#396,10.);
#44=VECTOR('',#397,10.);
#45=VECTOR('',#400,10.);
#46=VECTOR('',#403,10.);
#47=VECTOR('',#406,20.);
#48=VECTOR('',#421,10.);
#49=VECTOR('',#422,10.);
#50=VECTOR('',#439,27.5);
#51=VECTOR('',#450,23.7679491924311);
#52=VECTOR('',#459,16.6);
#53=VECTOR('',#468,11.1);
#54=VECTOR('',#481,20.6);
#55=PLANE('',#343);
#56=PLANE('',#353);
#57=PLANE('',#354);
#58=PLANE('',#355);
#59=PLANE('',#356);
#60=PLANE('',#367);
#61=PLANE('',#371);
#62=PLANE('',#377);
#63=PLANE('',#383);
#64=FACE_OUTER_BOUND('',#81,.T.);
#65=FACE_OUTER_BOUND('',#82,.T.);
#66=FACE_OUTER_BOUND('',#83,.T.);
#67=FACE_OUTER_BOUND('',#84,.T.);
#68=FACE_OUTER_BOUND('',#85,.T.);
#69=FACE_OUTER_BOUND('',#86,.T.);
#70=FACE_OUTER_BOUND('',#87,.T.);
#71=FACE_OUTER_BOUND('',#88,.T.);
#72=FACE_OUTER_BOUND('',#90,.T.);
#73=FACE_OUTER_BOUND('',#91,.T.);
#74=FACE_OUTER_BOUND('',#92,.T.);
#75=FACE_OUTER_BOUND('',#94,.T.);
#76=FACE_OUTER_BOUND('',#95,.T.);
#77=FACE_OUTER_BOUND('',#97,.T.);
#78=FACE_OUTER_BOUND('',#98,.T.);
#79=FACE_OUTER_BOUND('',#100,.T.);
#80=FACE_OUTER_BOUND('',#101,.T.);
#81=EDGE_LOOP('',(#210,#211,#212,#213));
#82=EDGE_LOOP('',(#214,#215,#216,#217,#218,#219));
#83=EDGE_LOOP('',(#220,#221,#222,#223,#224,#225,#226,#227,#228,#229,#230,
#231,#232));
#84=EDGE_LOOP('',(#233,#234,#235,#236,#237));
#85=EDGE_LOOP('',(#238,#239,#240,#241,#242,#243));
#86=EDGE_LOOP('',(#244,#245));
#87=EDGE_LOOP('',(#246,#247));
#88=EDGE_LOOP('',(#248,#249,#250,#251));
#89=EDGE_LOOP('',(#252,#253));
#90=EDGE_LOOP('',(#254,#255,#256,#257,#258,#259));
#91=EDGE_LOOP('',(#260,#261,#262,#263,#264,#265));
#92=EDGE_LOOP('',(#266,#267));
#93=EDGE_LOOP('',(#268,#269));
#94=EDGE_LOOP('',(#270,#271,#272,#273,#274,#275));
#95=EDGE_LOOP('',(#276,#277));
#96=EDGE_LOOP('',(#278,#279));
#97=EDGE_LOOP('',(#280,#281,#282,#283,#284,#285));
#98=EDGE_LOOP('',(#286,#287));
#99=EDGE_LOOP('',(#288,#289));
#100=EDGE_LOOP('',(#290,#291,#292,#293,#294,#295));
#101=EDGE_LOOP('',(#296,#297));
#102=EDGE_LOOP('',(#298,#299));
#103=CIRCLE('',#341,19.);
#104=CIRCLE('',#342,20.);
#105=CIRCLE('',#346,20.);
#106=CIRCLE('',#347,20.);
#107=CIRCLE('',#348,20.);
#108=CIRCLE('',#349,20.);
#109=CIRCLE('',#352,19.);
#110=CIRCLE('',#357,16.6);
#111=CIRCLE('',#358,16.6);
#112=CIRCLE('',#360,27.5);
#113=CIRCLE('',#361,27.5);
#114=CIRCLE('',#362,27.5);
#115=CIRCLE('',#363,27.5);
#116=CIRCLE('',#365,20.0358983848622);
#117=CIRCLE('',#366,20.0358983848622);
#118=CIRCLE('',#369,16.6);
#119=CIRCLE('',#370,16.6);
#120=CIRCLE('',#372,11.1);
#121=CIRCLE('',#373,11.1);
#122=CIRCLE('',#375,11.1);
#123=CIRCLE('',#376,11.1);
#124=CIRCLE('',#378,20.6);
#125=CIRCLE('',#379,20.6);
#126=CIRCLE('',#381,20.6);
#127=CIRCLE('',#382,20.6);
#128=(
BOUNDED_CURVE()
B_SPLINE_CURVE(2,(#492,#493,#494),.UNSPECIFIED.,.F.,.F.)
B_SPLINE_CURVE_WITH_KNOTS((3,3),(1.88599152289575,2.25020687341487),
 .UNSPECIFIED.)
CURVE()
GEOMETRIC_REPRESENTATION_ITEM()
RATIONAL_B_SPLINE_CURVE((1.02184433177397,1.01303141209974,1.))
REPRESENTATION_ITEM('')
);
#129=(
BOUNDED_CURVE()
B_SPLINE_CURVE(2,(#498,#499,#500),.UNSPECIFIED.,.F.,.F.)
B_SPLINE_CURVE_WITH_KNOTS((3,3),(0.,0.36421535051912),.UNSPECIFIED.)
CURVE()
GEOMETRIC_REPRESENTATION_ITEM()
RATIONAL_B_SPLINE_CURVE((1.,1.01303141209974,1.02184433177397))
REPRESENTATION_ITEM('')
);
#130=(
BOUNDED_CURVE()
B_SPLINE_CURVE(2,(#510,#511,#512),.UNSPECIFIED.,.F.,.F.)
B_SPLINE_CURVE_WITH_KNOTS((3,3),(0.,0.36421535051912),.UNSPECIFIED.)
CURVE()
GEOMETRIC_REPRESENTATION_ITEM()
RATIONAL_B_SPLINE_CURVE((1.,1.01303141209974,1.02184433177397))
REPRESENTATION_ITEM('')
);
#131=(
BOUNDED_CURVE()
B_SPLINE_CURVE(2,(#532,#533,#534),.UNSPECIFIED.,.F.,.F.)
B_SPLINE_CURVE_WITH_KNOTS((3,3),(1.88599152289575,2.25020687341487),
 .UNSPECIFIED.)
CURVE()
GEOMETRIC_REPRESENTATION_ITEM()
RATIONAL_B_SPLINE_CURVE((1.02184433177397,1.01303141209974,1.))
REPRESENTATION_ITEM('')
);
#132=VERTEX_POINT('',#490);
#133=VERTEX_POINT('',#491);
#134=VERTEX_POINT('',#495);
#135=VERTEX_POINT('',#497);
#136=VERTEX_POINT('',#503);
#137=VERTEX_POINT('',#505);
#138=VERTEX_POINT('',#507);
#139=VERTEX_POINT('',#509);
#140=VERTEX_POINT('',#515);
#141=VERTEX_POINT('',#517);
#142=VERTEX_POINT('',#519);
#143=VERTEX_POINT('',#521);
#144=VERTEX_POINT('',#523);
#145=VERTEX_POINT('',#525);
#146=VERTEX_POINT('',#531);
#147=VERTEX_POINT('',#542);
#148=VERTEX_POINT('',#543);
#149=VERTEX_POINT('',#547);
#150=VERTEX_POINT('',#548);
#151=VERTEX_POINT('',#551);
#152=VERTEX_POINT('',#553);
#153=VERTEX_POINT('',#557);
#154=VERTEX_POINT('',#558);
#155=VERTEX_POINT('',#564);
#156=VERTEX_POINT('',#565);
#157=VERTEX_POINT('',#570);
#158=VERTEX_POINT('',#571);
#159=VERTEX_POINT('',#575);
#160=VERTEX_POINT('',#577);
#161=VERTEX_POINT('',#581);
#162=VERTEX_POINT('',#582);
#163=VERTEX_POINT('',#586);
#164=VERTEX_POINT('',#588);
#165=EDGE_CURVE('',#132,#133,#128,.T.);
#166=EDGE_CURVE('',#133,#134,#103,.T.);
#167=EDGE_CURVE('',#134,#135,#129,.T.);
#168=EDGE_CURVE('',#135,#132,#104,.T.);
#169=EDGE_CURVE('',#136,#132,#27,.T.);
#170=EDGE_CURVE('',#136,#137,#28,.T.);
#171=EDGE_CURVE('',#138,#137,#29,.T.);
#172=EDGE_CURVE('',#139,#138,#130,.T.);
#173=EDGE_CURVE('',#133,#139,#30,.T.);
#174=EDGE_CURVE('',#135,#140,#31,.T.);
#175=EDGE_CURVE('',#140,#141,#20,.T.);
#176=EDGE_CURVE('',#141,#142,#32,.T.);
#177=EDGE_CURVE('',#143,#142,#105,.T.);
#178=EDGE_CURVE('',#143,#144,#33,.T.);
#179=EDGE_CURVE('',#144,#145,#106,.T.);
#180=EDGE_CURVE('',#145,#144,#107,.T.);
#181=EDGE_CURVE('',#138,#143,#108,.T.);
#182=EDGE_CURVE('',#137,#136,#21,.T.);
#183=EDGE_CURVE('',#142,#146,#131,.T.);
#184=EDGE_CURVE('',#146,#139,#109,.T.);
#185=EDGE_CURVE('',#146,#134,#34,.T.);
#186=EDGE_CURVE('',#140,#141,#35,.T.);
#187=EDGE_CURVE('',#147,#148,#110,.T.);
#188=EDGE_CURVE('',#148,#147,#111,.T.);
#189=EDGE_CURVE('',#149,#150,#112,.T.);
#190=EDGE_CURVE('',#150,#149,#113,.T.);
#191=EDGE_CURVE('',#150,#151,#36,.T.);
#192=EDGE_CURVE('',#151,#152,#114,.T.);
#193=EDGE_CURVE('',#152,#151,#115,.T.);
#194=EDGE_CURVE('',#153,#154,#116,.T.);
#195=EDGE_CURVE('',#154,#153,#117,.T.);
#196=EDGE_CURVE('',#154,#150,#37,.T.);
#197=EDGE_CURVE('',#155,#156,#118,.T.);
#198=EDGE_CURVE('',#156,#155,#119,.T.);
#199=EDGE_CURVE('',#156,#148,#38,.T.);
#200=EDGE_CURVE('',#157,#158,#120,.T.);
#201=EDGE_CURVE('',#158,#157,#121,.T.);
#202=EDGE_CURVE('',#158,#159,#39,.T.);
#203=EDGE_CURVE('',#160,#159,#122,.T.);
#204=EDGE_CURVE('',#159,#160,#123,.T.);
#205=EDGE_CURVE('',#161,#162,#124,.T.);
#206=EDGE_CURVE('',#162,#161,#125,.T.);
#207=EDGE_CURVE('',#162,#163,#40,.T.);
#208=EDGE_CURVE('',#164,#163,#126,.T.);
#209=EDGE_CURVE('',#163,#164,#127,.T.);
#210=ORIENTED_EDGE('',*,*,#165,.T.);
#211=ORIENTED_EDGE('',*,*,#166,.T.);
#212=ORIENTED_EDGE('',*,*,#167,.T.);
#213=ORIENTED_EDGE('',*,*,#168,.T.);
#214=ORIENTED_EDGE('',*,*,#165,.F.);
#215=ORIENTED_EDGE('',*,*,#169,.F.);
#216=ORIENTED_EDGE('',*,*,#170,.T.);
#217=ORIENTED_EDGE('',*,*,#171,.F.);
#218=ORIENTED_EDGE('',*,*,#172,.F.);
#219=ORIENTED_EDGE('',*,*,#173,.F.);
#220=ORIENTED_EDGE('',*,*,#168,.F.);
#221=ORIENTED_EDGE('',*,*,#174,.T.);
#222=ORIENTED_EDGE('',*,*,#175,.T.);
#223=ORIENTED_EDGE('',*,*,#176,.T.);
#224=ORIENTED_EDGE('',*,*,#177,.F.);
#225=ORIENTED_EDGE('',*,*,#178,.T.);
#226=ORIENTED_EDGE('',*,*,#179,.T.);
#227=ORIENTED_EDGE('',*,*,#180,.T.);
#228=ORIENTED_EDGE('',*,*,#178,.F.);
#229=ORIENTED_EDGE('',*,*,#181,.F.);
#230=ORIENTED_EDGE('',*,*,#171,.T.);
#231=ORIENTED_EDGE('',*,*,#182,.T.);
#232=ORIENTED_EDGE('',*,*,#169,.T.);
#233=ORIENTED_EDGE('',*,*,#183,.T.);
#234=ORIENTED_EDGE('',*,*,#184,.T.);
#235=ORIENTED_EDGE('',*,*,#172,.T.);
#236=ORIENTED_EDGE('',*,*,#181,.T.);
#237=ORIENTED_EDGE('',*,*,#177,.T.);
#238=ORIENTED_EDGE('',*,*,#167,.F.);
#239=ORIENTED_EDGE('',*,*,#185,.F.);
#240=ORIENTED_EDGE('',*,*,#183,.F.);
#241=ORIENTED_EDGE('',*,*,#176,.F.);
#242=ORIENTED_EDGE('',*,*,#186,.F.);
#243=ORIENTED_EDGE('',*,*,#174,.F.);
#244=ORIENTED_EDGE('',*,*,#175,.F.);
#245=ORIENTED_EDGE('',*,*,#186,.T.);
#246=ORIENTED_EDGE('',*,*,#182,.F.);
#247=ORIENTED_EDGE('',*,*,#170,.F.);
#248=ORIENTED_EDGE('',*,*,#166,.F.);
#249=ORIENTED_EDGE('',*,*,#173,.T.);
#250=ORIENTED_EDGE('',*,*,#184,.F.);
#251=ORIENTED_EDGE('',*,*,#185,.T.);
#252=ORIENTED_EDGE('',*,*,#187,.F.);
#253=ORIENTED_EDGE('',*,*,#188,.F.);
#254=ORIENTED_EDGE('',*,*,#189,.F.);
#255=ORIENTED_EDGE('',*,*,#190,.F.);
#256=ORIENTED_EDGE('',*,*,#191,.T.);
#257=ORIENTED_EDGE('',*,*,#192,.T.);
#258=ORIENTED_EDGE('',*,*,#193,.T.);
#259=ORIENTED_EDGE('',*,*,#191,.F.);
#260=ORIENTED_EDGE('',*,*,#194,.F.);
#261=ORIENTED_EDGE('',*,*,#195,.F.);
#262=ORIENTED_EDGE('',*,*,#196,.T.);
#263=ORIENTED_EDGE('',*,*,#190,.T.);
#264=ORIENTED_EDGE('',*,*,#189,.T.);
#265=ORIENTED_EDGE('',*,*,#196,.F.);
#266=ORIENTED_EDGE('',*,*,#194,.T.);
#267=ORIENTED_EDGE('',*,*,#195,.T.);
#268=ORIENTED_EDGE('',*,*,#180,.F.);
#269=ORIENTED_EDGE('',*,*,#179,.F.);
#270=ORIENTED_EDGE('',*,*,#197,.F.);
#271=ORIENTED_EDGE('',*,*,#198,.F.);
#272=ORIENTED_EDGE('',*,*,#199,.T.);
#273=ORIENTED_EDGE('',*,*,#188,.T.);
#274=ORIENTED_EDGE('',*,*,#187,.T.);
#275=ORIENTED_EDGE('',*,*,#199,.F.);
#276=ORIENTED_EDGE('',*,*,#197,.T.);
#277=ORIENTED_EDGE('',*,*,#198,.T.);
#278=ORIENTED_EDGE('',*,*,#200,.F.);
#279=ORIENTED_EDGE('',*,*,#201,.F.);
#280=ORIENTED_EDGE('',*,*,#200,.T.);
#281=ORIENTED_EDGE('',*,*,#202,.T.);
#282=ORIENTED_EDGE('',*,*,#203,.F.);
#283=ORIENTED_EDGE('',*,*,#204,.F.);
#284=ORIENTED_EDGE('',*,*,#202,.F.);
#285=ORIENTED_EDGE('',*,*,#201,.T.);
#286=ORIENTED_EDGE('',*,*,#205,.F.);
#287=ORIENTED_EDGE('',*,*,#206,.F.);
#288=ORIENTED_EDGE('',*,*,#203,.T.);
#289=ORIENTED_EDGE('',*,*,#204,.T.);
#290=ORIENTED_EDGE('',*,*,#205,.T.);
#291=ORIENTED_EDGE('',*,*,#207,.T.);
#292=ORIENTED_EDGE('',*,*,#208,.F.);
#293=ORIENTED_EDGE('',*,*,#209,.F.);
#294=ORIENTED_EDGE('',*,*,#207,.F.);
#295=ORIENTED_EDGE('',*,*,#206,.T.);
#296=ORIENTED_EDGE('',*,*,#193,.F.);
#297=ORIENTED_EDGE('',*,*,#192,.F.);
#298=ORIENTED_EDGE('',*,*,#208,.T.);
#299=ORIENTED_EDGE('',*,*,#209,.T.);
#300=CONICAL_SURFACE('',#340,19.5,0.785398163397447);
#301=CONICAL_SURFACE('',#351,19.5,0.785398163397447);
#302=CONICAL_SURFACE('',#364,23.7679491924311,1.30899693899575);
#303=ADVANCED_FACE('',(#64),#300,.T.);
#304=ADVANCED_FACE('',(#65),#55,.F.);
#305=ADVANCED_FACE('',(#66),#22,.T.);
#306=ADVANCED_FACE('',(#67),#301,.T.);
#307=ADVANCED_FACE('',(#68),#56,.F.);
#308=ADVANCED_FACE('',(#69),#57,.F.);
#309=ADVANCED_FACE('',(#70),#58,.F.);
#310=ADVANCED_FACE('',(#71,#15),#59,.T.);
#311=ADVANCED_FACE('',(#72),#23,.T.);
#312=ADVANCED_FACE('',(#73),#302,.T.);
#313=ADVANCED_FACE('',(#74,#16),#60,.T.);
#314=ADVANCED_FACE('',(#75),#24,.T.);
#315=ADVANCED_FACE('',(#76,#17),#61,.T.);
#316=ADVANCED_FACE('',(#77),#25,.F.);
#317=ADVANCED_FACE('',(#78,#18),#62,.T.);
#318=ADVANCED_FACE('',(#79),#26,.F.);
#319=ADVANCED_FACE('',(#80,#19),#63,.T.);
#320=CLOSED_SHELL('',(#303,#304,#305,#306,#307,#308,#309,#310,#311,#312,
#313,#314,#315,#316,#317,#318,#319));
#321=DERIVED_UNIT_ELEMENT(#323,1.);
#322=DERIVED_UNIT_ELEMENT(#597,3.);
#323=(
MASS_UNIT()
NAMED_UNIT(*)
SI_UNIT($,.GRAM.)
);
#324=DERIVED_UNIT((#321,#322));
#325=MEASURE_REPRESENTATION_ITEM('density measure',
POSITIVE_RATIO_MEASURE(8.),#324);
#326=PROPERTY_DEFINITION_REPRESENTATION(#331,#328);
#327=PROPERTY_DEFINITION_REPRESENTATION(#332,#329);
#328=REPRESENTATION('material name',(#330),#594);
#329=REPRESENTATION('density',(#325),#594);
#330=DESCRIPTIVE_REPRESENTATION_ITEM('Stainless Steel AISI 304',
'Stainless Steel AISI 304');
#331=PROPERTY_DEFINITION('material property','material name',#604);
#332=PROPERTY_DEFINITION('material property','density of part',#604);
#333=DATE_TIME_ROLE('creation_date');
#334=APPLIED_DATE_AND_TIME_ASSIGNMENT(#335,#333,(#604));
#335=DATE_AND_TIME(#336,#337);
#336=CALENDAR_DATE(2014,20,11);
#337=LOCAL_TIME(11,0,44.,#338);
#338=COORDINATED_UNIVERSAL_TIME_OFFSET(0,0,.BEHIND.);
#339=AXIS2_PLACEMENT_3D('placement',#488,#384,#385);
#340=AXIS2_PLACEMENT_3D('',#489,#386,#387);
#341=AXIS2_PLACEMENT_3D('',#496,#388,#389);
#342=AXIS2_PLACEMENT_3D('',#501,#390,#391);
#343=AXIS2_PLACEMENT_3D('',#502,#392,#393);
#344=AXIS2_PLACEMENT_3D('',#514,#398,#399);
#345=AXIS2_PLACEMENT_3D('',#518,#401,#402);
#346=AXIS2_PLACEMENT_3D('',#522,#404,#405);
#347=AXIS2_PLACEMENT_3D('',#526,#407,#408);
#348=AXIS2_PLACEMENT_3D('',#527,#409,#410);
#349=AXIS2_PLACEMENT_3D('',#528,#411,#412);
#350=AXIS2_PLACEMENT_3D('',#529,#413,#414);
#351=AXIS2_PLACEMENT_3D('',#530,#415,#416);
#352=AXIS2_PLACEMENT_3D('',#535,#417,#418);
#353=AXIS2_PLACEMENT_3D('',#536,#419,#420);
#354=AXIS2_PLACEMENT_3D('',#539,#423,#424);
#355=AXIS2_PLACEMENT_3D('',#540,#425,#426);
#356=AXIS2_PLACEMENT_3D('',#541,#427,#428);
#357=AXIS2_PLACEMENT_3D('',#544,#429,#430);
#358=AXIS2_PLACEMENT_3D('',#545,#431,#432);
#359=AXIS2_PLACEMENT_3D('',#546,#433,#434);
#360=AXIS2_PLACEMENT_3D('',#549,#435,#436);
#361=AXIS2_PLACEMENT_3D('',#550,#437,#438);
#362=AXIS2_PLACEMENT_3D('',#554,#440,#441);
#363=AXIS2_PLACEMENT_3D('',#555,#442,#443);
#364=AXIS2_PLACEMENT_3D('',#556,#444,#445);
#365=AXIS2_PLACEMENT_3D('',#559,#446,#447);
#366=AXIS2_PLACEMENT_3D('',#560,#448,#449);
#367=AXIS2_PLACEMENT_3D('',#562,#451,#452);
#368=AXIS2_PLACEMENT_3D('',#563,#453,#454);
#369=AXIS2_PLACEMENT_3D('',#566,#455,#456);
#370=AXIS2_PLACEMENT_3D('',#567,#457,#458);
#371=AXIS2_PLACEMENT_3D('',#569,#460,#461);
#372=AXIS2_PLACEMENT_3D('',#572,#462,#463);
#373=AXIS2_PLACEMENT_3D('',#573,#464,#465);
#374=AXIS2_PLACEMENT_3D('',#574,#466,#467);
#375=AXIS2_PLACEMENT_3D('',#578,#469,#470);
#376=AXIS2_PLACEMENT_3D('',#579,#471,#472);
#377=AXIS2_PLACEMENT_3D('',#580,#473,#474);
#378=AXIS2_PLACEMENT_3D('',#583,#475,#476);
#379=AXIS2_PLACEMENT_3D('',#584,#477,#478);
#380=AXIS2_PLACEMENT_3D('',#585,#479,#480);
#381=AXIS2_PLACEMENT_3D('',#589,#482,#483);
#382=AXIS2_PLACEMENT_3D('',#590,#484,#485);
#383=AXIS2_PLACEMENT_3D('',#591,#486,#487);
#384=DIRECTION('axis',(0.,0.,1.));
#385=DIRECTION('refdir',(1.,0.,0.));
#386=DIRECTION('center_axis',(0.,-1.,0.));
#387=DIRECTION('ref_axis',(-1.,0.,0.));
#388=DIRECTION('center_axis',(0.,-1.,0.));
#389=DIRECTION('ref_axis',(-1.,0.,0.));
#390=DIRECTION('center_axis',(0.,1.,0.));
#391=DIRECTION('ref_axis',(-1.,0.,0.));
#392=DIRECTION('center_axis',(0.,0.,-1.));
#393=DIRECTION('ref_axis',(0.,1.,0.));
#394=DIRECTION('',(0.,1.,0.));
#395=DIRECTION('',(1.,0.,0.));
#396=DIRECTION('',(0.,-1.,0.));
#397=DIRECTION('',(1.,0.,0.));
#398=DIRECTION('center_axis',(0.,1.,0.));
#399=DIRECTION('ref_axis',(-1.,0.,0.));
#400=DIRECTION('',(0.,-1.,0.));
#401=DIRECTION('center_axis',(0.,-0.707106781186547,0.707106781186548));
#402=DIRECTION('ref_axis',(0.,0.707106781186548,0.707106781186547));
#403=DIRECTION('',(0.,1.,0.));
#404=DIRECTION('center_axis',(0.,1.,0.));
#405=DIRECTION('ref_axis',(1.,0.,0.));
#406=DIRECTION('',(0.,-1.,0.));
#407=DIRECTION('center_axis',(0.,1.,0.));
#408=DIRECTION('ref_axis',(1.,0.,0.));
#409=DIRECTION('center_axis',(0.,1.,0.));
#410=DIRECTION('ref_axis',(1.,0.,0.));
#411=DIRECTION('center_axis',(0.,1.,0.));
#412=DIRECTION('ref_axis',(1.,0.,0.));
#413=DIRECTION('center_axis',(0.,-0.707106781186547,-0.707106781186548));
#414=DIRECTION('ref_axis',(0.,-0.707106781186548,0.707106781186547));
#415=DIRECTION('center_axis',(0.,-1.,0.));
#416=DIRECTION('ref_axis',(1.,0.,0.));
#417=DIRECTION('center_axis',(0.,-1.,0.));
#418=DIRECTION('ref_axis',(1.,0.,0.));
#419=DIRECTION('center_axis',(0.,0.,1.));
#420=DIRECTION('ref_axis',(0.,-1.,0.));
#421=DIRECTION('',(-1.,0.,0.));
#422=DIRECTION('',(1.,0.,0.));
#423=DIRECTION('center_axis',(0.,-0.707106781186547,0.707106781186548));
#424=DIRECTION('ref_axis',(0.,-0.707106781186548,-0.707106781186547));
#425=DIRECTION('center_axis',(0.,-0.707106781186547,-0.707106781186548));
#426=DIRECTION('ref_axis',(0.,0.707106781186548,-0.707106781186547));
#427=DIRECTION('center_axis',(0.,1.,0.));
#428=DIRECTION('ref_axis',(0.,0.,1.));
#429=DIRECTION('center_axis',(0.,1.,0.));
#430=DIRECTION('ref_axis',(1.,0.,0.));
#431=DIRECTION('center_axis',(0.,1.,0.));
#432=DIRECTION('ref_axis',(1.,0.,0.));
#433=DIRECTION('center_axis',(0.,1.,0.));
#434=DIRECTION('ref_axis',(-1.,0.,0.));
#435=DIRECTION('center_axis',(0.,1.,0.));
#436=DIRECTION('ref_axis',(1.,0.,0.));
#437=DIRECTION('center_axis',(0.,1.,0.));
#438=DIRECTION('ref_axis',(1.,0.,0.));
#439=DIRECTION('',(0.,-1.,0.));
#440=DIRECTION('center_axis',(0.,1.,0.));
#441=DIRECTION('ref_axis',(1.,0.,0.));
#442=DIRECTION('center_axis',(0.,1.,0.));
#443=DIRECTION('ref_axis',(1.,0.,0.));
#444=DIRECTION('center_axis',(0.,-1.,0.));
#445=DIRECTION('ref_axis',(-1.,0.,0.));
#446=DIRECTION('center_axis',(0.,1.,0.));
#447=DIRECTION('ref_axis',(1.,0.,0.));
#448=DIRECTION('center_axis',(0.,1.,0.));
#449=DIRECTION('ref_axis',(1.,0.,0.));
#450=DIRECTION('',(0.965925826289068,-0.258819045102521,-1.18291797137867E-16));
#451=DIRECTION('center_axis',(0.,1.,0.));
#452=DIRECTION('ref_axis',(0.,0.,1.));
#453=DIRECTION('center_axis',(0.,1.,0.));
#454=DIRECTION('ref_axis',(-1.,0.,0.));
#455=DIRECTION('center_axis',(0.,1.,0.));
#456=DIRECTION('ref_axis',(1.,0.,0.));
#457=DIRECTION('center_axis',(0.,1.,0.));
#458=DIRECTION('ref_axis',(1.,0.,0.));
#459=DIRECTION('',(0.,-1.,0.));
#460=DIRECTION('center_axis',(0.,1.,0.));
#461=DIRECTION('ref_axis',(0.,0.,1.));
#462=DIRECTION('center_axis',(0.,1.,0.));
#463=DIRECTION('ref_axis',(1.,0.,0.));
#464=DIRECTION('center_axis',(0.,1.,0.));
#465=DIRECTION('ref_axis',(1.,0.,0.));
#466=DIRECTION('center_axis',(0.,1.,0.));
#467=DIRECTION('ref_axis',(-1.,0.,0.));
#468=DIRECTION('',(0.,-1.,0.));
#469=DIRECTION('center_axis',(0.,1.,0.));
#470=DIRECTION('ref_axis',(1.,0.,0.));
#471=DIRECTION('center_axis',(0.,1.,0.));
#472=DIRECTION('ref_axis',(1.,0.,0.));
#473=DIRECTION('center_axis',(0.,-1.,0.));
#474=DIRECTION('ref_axis',(0.,0.,-1.));
#475=DIRECTION('center_axis',(0.,1.,0.));
#476=DIRECTION('ref_axis',(1.,0.,0.));
#477=DIRECTION('center_axis',(0.,1.,0.));
#478=DIRECTION('ref_axis',(1.,0.,0.));
#479=DIRECTION('center_axis',(0.,1.,0.));
#480=DIRECTION('ref_axis',(-1.,0.,0.));
#481=DIRECTION('',(0.,-1.,0.));
#482=DIRECTION('center_axis',(0.,1.,0.));
#483=DIRECTION('ref_axis',(1.,0.,0.));
#484=DIRECTION('center_axis',(0.,1.,0.));
#485=DIRECTION('ref_axis',(1.,0.,0.));
#486=DIRECTION('center_axis',(0.,-1.,0.));
#487=DIRECTION('ref_axis',(0.,0.,-1.));
#488=CARTESIAN_POINT('',(0.,0.,0.));
#489=CARTESIAN_POINT('Origin',(0.,24.5,0.));
#490=CARTESIAN_POINT('',(-8.92132277187637,24.,17.9));
#491=CARTESIAN_POINT('',(-6.37102817447859,25.,17.9));
#492=CARTESIAN_POINT('Ctrl Pts',(-8.92132277187637,24.,17.9));
#493=CARTESIAN_POINT('Ctrl Pts',(-7.61347938859559,24.5833846478655,17.9));
#494=CARTESIAN_POINT('Ctrl Pts',(-6.37102817447858,25.,17.9));
#495=CARTESIAN_POINT('',(-6.37102817447859,25.,-17.9));
#496=CARTESIAN_POINT('Origin',(0.,25.,0.));
#497=CARTESIAN_POINT('',(-8.92132277187637,24.,-17.9));
#498=CARTESIAN_POINT('Ctrl Pts',(-6.37102817447858,25.,-17.9));
#499=CARTESIAN_POINT('Ctrl Pts',(-7.61347938859559,24.5833846478655,-17.9));
#500=CARTESIAN_POINT('Ctrl Pts',(-8.92132277187637,24.,-17.9));
#501=CARTESIAN_POINT('Origin',(0.,24.,0.));
#502=CARTESIAN_POINT('Origin',(-20.,13.,17.9));
#503=CARTESIAN_POINT('',(-8.92132277187637,13.,17.9));
#504=CARTESIAN_POINT('',(-8.92132277187637,15.,17.9));
#505=CARTESIAN_POINT('',(8.92132277187637,13.,17.9));
#506=CARTESIAN_POINT('',(-20.,13.,17.9));
#507=CARTESIAN_POINT('',(8.92132277187637,24.,17.9));
#508=CARTESIAN_POINT('',(8.92132277187637,15.,17.9));
#509=CARTESIAN_POINT('',(6.37102817447859,25.,17.9));
#510=CARTESIAN_POINT('Ctrl Pts',(6.37102817447858,25.,17.9));
#511=CARTESIAN_POINT('Ctrl Pts',(7.61347938859559,24.5833846478655,17.9));
#512=CARTESIAN_POINT('Ctrl Pts',(8.92132277187637,24.,17.9));
#513=CARTESIAN_POINT('',(-18.3,25.,17.9));
#514=CARTESIAN_POINT('Origin',(0.,15.,0.));
#515=CARTESIAN_POINT('',(-8.92132277187637,13.,-17.9));
#516=CARTESIAN_POINT('',(-8.92132277187637,15.,-17.9));
#517=CARTESIAN_POINT('',(8.92132277187637,13.,-17.9));
#518=CARTESIAN_POINT('Origin',(0.,30.9,0.));
#519=CARTESIAN_POINT('',(8.92132277187637,24.,-17.9));
#520=CARTESIAN_POINT('',(8.92132277187637,15.,-17.9));
#521=CARTESIAN_POINT('',(20.,24.,-2.44929359829471E-15));
#522=CARTESIAN_POINT('Origin',(0.,24.,0.));
#523=CARTESIAN_POINT('',(20.,5.,-2.44929359829471E-15));
#524=CARTESIAN_POINT('',(20.,15.,-2.44929359829471E-15));
#525=CARTESIAN_POINT('',(-20.,5.,0.));
#526=CARTESIAN_POINT('Origin',(0.,5.,0.));
#527=CARTESIAN_POINT('Origin',(0.,5.,0.));
#528=CARTESIAN_POINT('Origin',(0.,24.,0.));
#529=CARTESIAN_POINT('Origin',(0.,30.9,0.));
#530=CARTESIAN_POINT('Origin',(0.,24.5,0.));
#531=CARTESIAN_POINT('',(6.37102817447859,25.,-17.9));
#532=CARTESIAN_POINT('Ctrl Pts',(8.92132277187637,24.,-17.9));
#533=CARTESIAN_POINT('Ctrl Pts',(7.61347938859559,24.5833846478655,-17.9));
#534=CARTESIAN_POINT('Ctrl Pts',(6.37102817447858,25.,-17.9));
#535=CARTESIAN_POINT('Origin',(0.,25.,0.));
#536=CARTESIAN_POINT('Origin',(-20.,29.,-17.9));
#537=CARTESIAN_POINT('',(-18.3,25.,-17.9));
#538=CARTESIAN_POINT('',(-20.,13.,-17.9));
#539=CARTESIAN_POINT('Origin',(-20.,13.,-17.9));
#540=CARTESIAN_POINT('Origin',(-20.,5.89999999999999,25.));
#541=CARTESIAN_POINT('Origin',(-16.6,25.,0.));
#542=CARTESIAN_POINT('',(-16.6,25.,0.));
#543=CARTESIAN_POINT('',(16.6,25.,-2.03291368658461E-15));
#544=CARTESIAN_POINT('Origin',(0.,25.,0.));
#545=CARTESIAN_POINT('Origin',(0.,25.,0.));
#546=CARTESIAN_POINT('Origin',(0.,1.5,0.));
#547=CARTESIAN_POINT('',(-27.5,3.,0.));
#548=CARTESIAN_POINT('',(27.5,3.,-3.36777869765522E-15));
#549=CARTESIAN_POINT('Origin',(0.,3.,0.));
#550=CARTESIAN_POINT('Origin',(0.,3.,0.));
#551=CARTESIAN_POINT('',(27.5,-2.4980018054066E-15,-3.36777869765522E-15));
#552=CARTESIAN_POINT('',(27.5,1.5,-3.36777869765522E-15));
#553=CARTESIAN_POINT('',(-27.5,-2.44929359829471E-15,0.));
#554=CARTESIAN_POINT('Origin',(0.,-2.44929359829471E-15,0.));
#555=CARTESIAN_POINT('Origin',(0.,-2.44929359829471E-15,0.));
#556=CARTESIAN_POINT('Origin',(0.,4.,0.));
#557=CARTESIAN_POINT('',(-20.0358983848622,5.,0.));
#558=CARTESIAN_POINT('',(20.0358983848622,5.,-2.45368988250632E-15));
#559=CARTESIAN_POINT('Origin',(0.,5.,0.));
#560=CARTESIAN_POINT('Origin',(0.,5.,0.));
#561=CARTESIAN_POINT('',(23.7679491924311,4.,-2.91073429008077E-15));
#562=CARTESIAN_POINT('Origin',(-20.,5.,0.));
#563=CARTESIAN_POINT('Origin',(0.,35.,0.));
#564=CARTESIAN_POINT('',(-16.6,45.,0.));
#565=CARTESIAN_POINT('',(16.6,45.,-2.03291368658461E-15));
#566=CARTESIAN_POINT('Origin',(0.,45.,0.));
#567=CARTESIAN_POINT('Origin',(0.,45.,0.));
#568=CARTESIAN_POINT('',(16.6,35.,-2.03291368658461E-15));
#569=CARTESIAN_POINT('Origin',(-11.1,45.,0.));
#570=CARTESIAN_POINT('',(-11.1,45.,0.));
#571=CARTESIAN_POINT('',(11.1,45.,-1.35935794705356E-15));
#572=CARTESIAN_POINT('Origin',(0.,45.,0.));
#573=CARTESIAN_POINT('Origin',(0.,45.,0.));
#574=CARTESIAN_POINT('Origin',(0.,23.75,0.));
#575=CARTESIAN_POINT('',(11.1,2.5,-1.35935794705356E-15));
#576=CARTESIAN_POINT('',(11.1,23.75,-1.35935794705356E-15));
#577=CARTESIAN_POINT('',(-11.1,2.5,0.));
#578=CARTESIAN_POINT('Origin',(0.,2.5,0.));
#579=CARTESIAN_POINT('Origin',(0.,2.5,0.));
#580=CARTESIAN_POINT('Origin',(-20.6,2.5,0.));
#581=CARTESIAN_POINT('',(-20.6,2.5,0.));
#582=CARTESIAN_POINT('',(20.6,2.5,-2.52277240624355E-15));
#583=CARTESIAN_POINT('Origin',(0.,2.5,0.));
#584=CARTESIAN_POINT('Origin',(0.,2.5,0.));
#585=CARTESIAN_POINT('Origin',(0.,1.25,0.));
#586=CARTESIAN_POINT('',(20.6,-1.66533453693773E-15,-2.52277240624355E-15));
#587=CARTESIAN_POINT('',(20.6,1.25,-2.52277240624355E-15));
#588=CARTESIAN_POINT('',(-20.6,-1.66533453693773E-15,0.));
#589=CARTESIAN_POINT('Origin',(0.,-1.66533453693773E-15,0.));
#590=CARTESIAN_POINT('Origin',(0.,-1.66533453693773E-15,0.));
#591=CARTESIAN_POINT('Origin',(-27.5,-2.44929359829471E-15,0.));
#592=UNCERTAINTY_MEASURE_WITH_UNIT(LENGTH_MEASURE(0.01),#596,
'DISTANCE_ACCURACY_VALUE',
'Maximum model space distance between geometric entities at asserted c
onnectivities');
#593=UNCERTAINTY_MEASURE_WITH_UNIT(LENGTH_MEASURE(0.01),#596,
'DISTANCE_ACCURACY_VALUE',
'Maximum model space distance between geometric entities at asserted c
onnectivities');
#594=(
GEOMETRIC_REPRESENTATION_CONTEXT(3)
GLOBAL_UNCERTAINTY_ASSIGNED_CONTEXT((#592))
GLOBAL_UNIT_ASSIGNED_CONTEXT((#596,#598,#599))
REPRESENTATION_CONTEXT('','3D')
);
#595=(
GEOMETRIC_REPRESENTATION_CONTEXT(3)
GLOBAL_UNCERTAINTY_ASSIGNED_CONTEXT((#593))
GLOBAL_UNIT_ASSIGNED_CONTEXT((#596,#598,#599))
REPRESENTATION_CONTEXT('','3D')
);
#596=(
LENGTH_UNIT()
NAMED_UNIT(*)
SI_UNIT(.MILLI.,.METRE.)
);
#597=(
LENGTH_UNIT()
NAMED_UNIT(*)
SI_UNIT(.CENTI.,.METRE.)
);
#598=(
NAMED_UNIT(*)
PLANE_ANGLE_UNIT()
SI_UNIT($,.RADIAN.)
);
#599=(
NAMED_UNIT(*)
SI_UNIT($,.STERADIAN.)
SOLID_ANGLE_UNIT()
);
#600=SHAPE_DEFINITION_REPRESENTATION(#601,#602);
#601=PRODUCT_DEFINITION_SHAPE('',$,#604);
#602=SHAPE_REPRESENTATION('',(#339),#594);
#603=PRODUCT_DEFINITION_CONTEXT('part definition',#608,'design');
#604=PRODUCT_DEFINITION('FL-40KF-1BSPM','FL-40KF-1BSPM',#605,#603);
#605=PRODUCT_DEFINITION_FORMATION('',$,#610);
#606=PRODUCT_RELATED_PRODUCT_CATEGORY('FL-40KF-1BSPM','FL-40KF-1BSPM',(#610));
#607=APPLICATION_PROTOCOL_DEFINITION('international standard',
'automotive_design',2009,#608);
#608=APPLICATION_CONTEXT(
'Core Data for Automotive Mechanical Design Process');
#609=PRODUCT_CONTEXT('part definition',#608,'mechanical');
#610=PRODUCT('FL-40KF-1BSPM','FL-40KF-1BSPM',$,(#609));
#611=PRESENTATION_STYLE_ASSIGNMENT((#612));
#612=SURFACE_STYLE_USAGE(.BOTH.,#615);
#613=SURFACE_STYLE_RENDERING_WITH_PROPERTIES($,#619,(#614));
#614=SURFACE_STYLE_TRANSPARENT(1.);
#615=SURFACE_SIDE_STYLE('',(#616,#613));
#616=SURFACE_STYLE_FILL_AREA(#617);
#617=FILL_AREA_STYLE('',(#618));
#618=FILL_AREA_STYLE_COLOUR('',#619);
#619=COLOUR_RGB('',0.745098039215686,0.737254901960784,0.729411764705882);
ENDSEC;
END-ISO-10303-21;
