ISO-10303-21;
HEADER;
/* Generated by software containing ST-Developer
 * from STEP Tools, Inc. (www.steptools.com) 
 */

FILE_DESCRIPTION(
/* description */ (''),
/* implementation_level */ '2;1');

FILE_NAME(
/* name */ 
'G:\\FLANGES & FITTINGS\\BSP Adapters\\Step Files\\FL-25KF-3-4BSPM.stp',

/* time_stamp */ '2020-10-13T09:58:37+01:00',
/* author */ ('Paul'),
/* organization */ (''),
/* preprocessor_version */ 'ST-DEVELOPER v18.1',
/* originating_system */ 'Autodesk Inventor 2021',
/* authorisation */ '');

FILE_SCHEMA (('AUTOMOTIVE_DESIGN { 1 0 10303 214 3 1 1 }'));
ENDSEC;

DATA;
#10=MECHANICAL_DESIGN_GEOMETRIC_PRESENTATION_REPRESENTATION('',(#13),#502);
#11=SHAPE_REPRESENTATION_RELATIONSHIP('SRR','None',#509,#12);
#12=ADVANCED_BREP_SHAPE_REPRESENTATION('',(#14),#501);
#13=STYLED_ITEM('',(#518),#14);
#14=MANIFOLD_SOLID_BREP('Solid1',#269);
#15=FACE_BOUND('',#72,.T.);
#16=FACE_BOUND('',#75,.T.);
#17=FACE_BOUND('',#78,.T.);
#18=CYLINDRICAL_SURFACE('',#301,20.);
#19=CYLINDRICAL_SURFACE('',#309,15.);
#20=CYLINDRICAL_SURFACE('',#310,13.4);
#21=CYLINDRICAL_SURFACE('',#316,7.95);
#22=CYLINDRICAL_SURFACE('',#322,13.1);
#23=CIRCLE('',#296,13.4);
#24=CIRCLE('',#297,13.4);
#25=CIRCLE('',#298,15.);
#26=CIRCLE('',#299,15.);
#27=CIRCLE('',#300,15.);
#28=CIRCLE('',#302,20.);
#29=CIRCLE('',#303,20.);
#30=CIRCLE('',#304,20.);
#31=CIRCLE('',#305,20.);
#32=CIRCLE('',#307,15.);
#33=CIRCLE('',#308,15.);
#34=CIRCLE('',#311,13.4);
#35=CIRCLE('',#312,13.4);
#36=CIRCLE('',#314,7.95000000000001);
#37=CIRCLE('',#315,7.95000000000001);
#38=CIRCLE('',#317,7.95);
#39=CIRCLE('',#318,7.95);
#40=CIRCLE('',#320,13.1);
#41=CIRCLE('',#321,13.1);
#42=CIRCLE('',#323,13.1);
#43=CIRCLE('',#324,13.1);
#44=CONICAL_SURFACE('',#295,14.2,0.785398163397446);
#45=CONICAL_SURFACE('',#306,17.5,1.30899693899575);
#46=ELLIPSE('',#291,21.2132034355964,15.);
#47=ELLIPSE('',#294,21.2132034355964,15.);
#48=FACE_OUTER_BOUND('',#62,.T.);
#49=FACE_OUTER_BOUND('',#63,.T.);
#50=FACE_OUTER_BOUND('',#64,.T.);
#51=FACE_OUTER_BOUND('',#65,.T.);
#52=FACE_OUTER_BOUND('',#66,.T.);
#53=FACE_OUTER_BOUND('',#67,.T.);
#54=FACE_OUTER_BOUND('',#68,.T.);
#55=FACE_OUTER_BOUND('',#69,.T.);
#56=FACE_OUTER_BOUND('',#70,.T.);
#57=FACE_OUTER_BOUND('',#71,.T.);
#58=FACE_OUTER_BOUND('',#73,.T.);
#59=FACE_OUTER_BOUND('',#74,.T.);
#60=FACE_OUTER_BOUND('',#76,.T.);
#61=FACE_OUTER_BOUND('',#77,.T.);
#62=EDGE_LOOP('',(#172,#173,#174,#175));
#63=EDGE_LOOP('',(#176,#177));
#64=EDGE_LOOP('',(#178,#179,#180,#181));
#65=EDGE_LOOP('',(#182,#183));
#66=EDGE_LOOP('',(#184,#185,#186,#187,#188,#189,#190,#191,#192));
#67=EDGE_LOOP('',(#193,#194,#195,#196,#197,#198));
#68=EDGE_LOOP('',(#199,#200,#201,#202,#203,#204));
#69=EDGE_LOOP('',(#205,#206,#207,#208,#209,#210,#211,#212,#213,#214,#215,
#216,#217));
#70=EDGE_LOOP('',(#218,#219,#220,#221,#222,#223));
#71=EDGE_LOOP('',(#224,#225));
#72=EDGE_LOOP('',(#226,#227));
#73=EDGE_LOOP('',(#228,#229,#230,#231,#232,#233));
#74=EDGE_LOOP('',(#234,#235));
#75=EDGE_LOOP('',(#236,#237));
#76=EDGE_LOOP('',(#238,#239,#240,#241,#242,#243));
#77=EDGE_LOOP('',(#244,#245));
#78=EDGE_LOOP('',(#246,#247));
#79=(
BOUNDED_CURVE()
B_SPLINE_CURVE(2,(#424,#425,#426),.UNSPECIFIED.,.F.,.F.)
B_SPLINE_CURVE_WITH_KNOTS((3,3),(0.,1.36381816969859),.UNSPECIFIED.)
CURVE()
GEOMETRIC_REPRESENTATION_ITEM()
RATIONAL_B_SPLINE_CURVE((1.,1.11524163568774,1.))
REPRESENTATION_ITEM('')
);
#80=(
BOUNDED_CURVE()
B_SPLINE_CURVE(2,(#437,#438,#439),.UNSPECIFIED.,.F.,.F.)
B_SPLINE_CURVE_WITH_KNOTS((3,3),(0.,1.36381816969859),.UNSPECIFIED.)
CURVE()
GEOMETRIC_REPRESENTATION_ITEM()
RATIONAL_B_SPLINE_CURVE((1.,1.11524163568774,1.))
REPRESENTATION_ITEM('')
);
#81=LINE('',#419,#94);
#82=LINE('',#421,#95);
#83=LINE('',#423,#96);
#84=LINE('',#432,#97);
#85=LINE('',#434,#98);
#86=LINE('',#436,#99);
#87=LINE('',#448,#100);
#88=LINE('',#458,#101);
#89=LINE('',#467,#102);
#90=LINE('',#469,#103);
#91=LINE('',#475,#104);
#92=LINE('',#483,#105);
#93=LINE('',#494,#106);
#94=VECTOR('',#330,10.);
#95=VECTOR('',#331,10.);
#96=VECTOR('',#332,10.);
#97=VECTOR('',#339,10.);
#98=VECTOR('',#340,10.);
#99=VECTOR('',#341,10.);
#100=VECTOR('',#352,14.2);
#101=VECTOR('',#365,20.);
#102=VECTOR('',#376,17.5);
#103=VECTOR('',#379,15.);
#104=VECTOR('',#386,13.4);
#105=VECTOR('',#395,7.95);
#106=VECTOR('',#408,13.1);
#107=VERTEX_POINT('',#417);
#108=VERTEX_POINT('',#418);
#109=VERTEX_POINT('',#420);
#110=VERTEX_POINT('',#422);
#111=VERTEX_POINT('',#430);
#112=VERTEX_POINT('',#431);
#113=VERTEX_POINT('',#433);
#114=VERTEX_POINT('',#435);
#115=VERTEX_POINT('',#443);
#116=VERTEX_POINT('',#444);
#117=VERTEX_POINT('',#447);
#118=VERTEX_POINT('',#453);
#119=VERTEX_POINT('',#454);
#120=VERTEX_POINT('',#457);
#121=VERTEX_POINT('',#459);
#122=VERTEX_POINT('',#463);
#123=VERTEX_POINT('',#464);
#124=VERTEX_POINT('',#471);
#125=VERTEX_POINT('',#472);
#126=VERTEX_POINT('',#477);
#127=VERTEX_POINT('',#478);
#128=VERTEX_POINT('',#482);
#129=VERTEX_POINT('',#484);
#130=VERTEX_POINT('',#488);
#131=VERTEX_POINT('',#489);
#132=VERTEX_POINT('',#493);
#133=VERTEX_POINT('',#495);
#134=EDGE_CURVE('',#107,#108,#81,.T.);
#135=EDGE_CURVE('',#109,#107,#82,.T.);
#136=EDGE_CURVE('',#110,#109,#83,.T.);
#137=EDGE_CURVE('',#108,#110,#79,.T.);
#138=EDGE_CURVE('',#109,#107,#46,.T.);
#139=EDGE_CURVE('',#111,#112,#84,.T.);
#140=EDGE_CURVE('',#111,#113,#85,.T.);
#141=EDGE_CURVE('',#114,#113,#86,.T.);
#142=EDGE_CURVE('',#112,#114,#80,.T.);
#143=EDGE_CURVE('',#113,#111,#47,.T.);
#144=EDGE_CURVE('',#115,#116,#23,.T.);
#145=EDGE_CURVE('',#116,#115,#24,.T.);
#146=EDGE_CURVE('',#116,#117,#87,.T.);
#147=EDGE_CURVE('',#117,#108,#25,.T.);
#148=EDGE_CURVE('',#110,#112,#26,.T.);
#149=EDGE_CURVE('',#114,#117,#27,.T.);
#150=EDGE_CURVE('',#118,#119,#28,.T.);
#151=EDGE_CURVE('',#119,#118,#29,.T.);
#152=EDGE_CURVE('',#119,#120,#88,.T.);
#153=EDGE_CURVE('',#120,#121,#30,.T.);
#154=EDGE_CURVE('',#121,#120,#31,.T.);
#155=EDGE_CURVE('',#122,#123,#32,.T.);
#156=EDGE_CURVE('',#123,#122,#33,.T.);
#157=EDGE_CURVE('',#123,#119,#89,.T.);
#158=EDGE_CURVE('',#117,#123,#90,.T.);
#159=EDGE_CURVE('',#124,#125,#34,.T.);
#160=EDGE_CURVE('',#125,#124,#35,.T.);
#161=EDGE_CURVE('',#125,#116,#91,.T.);
#162=EDGE_CURVE('',#126,#127,#36,.T.);
#163=EDGE_CURVE('',#127,#126,#37,.T.);
#164=EDGE_CURVE('',#127,#128,#92,.T.);
#165=EDGE_CURVE('',#129,#128,#38,.T.);
#166=EDGE_CURVE('',#128,#129,#39,.T.);
#167=EDGE_CURVE('',#130,#131,#40,.T.);
#168=EDGE_CURVE('',#131,#130,#41,.T.);
#169=EDGE_CURVE('',#131,#132,#93,.T.);
#170=EDGE_CURVE('',#133,#132,#42,.T.);
#171=EDGE_CURVE('',#132,#133,#43,.T.);
#172=ORIENTED_EDGE('',*,*,#134,.F.);
#173=ORIENTED_EDGE('',*,*,#135,.F.);
#174=ORIENTED_EDGE('',*,*,#136,.F.);
#175=ORIENTED_EDGE('',*,*,#137,.F.);
#176=ORIENTED_EDGE('',*,*,#138,.F.);
#177=ORIENTED_EDGE('',*,*,#135,.T.);
#178=ORIENTED_EDGE('',*,*,#139,.F.);
#179=ORIENTED_EDGE('',*,*,#140,.T.);
#180=ORIENTED_EDGE('',*,*,#141,.F.);
#181=ORIENTED_EDGE('',*,*,#142,.F.);
#182=ORIENTED_EDGE('',*,*,#143,.F.);
#183=ORIENTED_EDGE('',*,*,#140,.F.);
#184=ORIENTED_EDGE('',*,*,#144,.F.);
#185=ORIENTED_EDGE('',*,*,#145,.F.);
#186=ORIENTED_EDGE('',*,*,#146,.T.);
#187=ORIENTED_EDGE('',*,*,#147,.T.);
#188=ORIENTED_EDGE('',*,*,#137,.T.);
#189=ORIENTED_EDGE('',*,*,#148,.T.);
#190=ORIENTED_EDGE('',*,*,#142,.T.);
#191=ORIENTED_EDGE('',*,*,#149,.T.);
#192=ORIENTED_EDGE('',*,*,#146,.F.);
#193=ORIENTED_EDGE('',*,*,#150,.F.);
#194=ORIENTED_EDGE('',*,*,#151,.F.);
#195=ORIENTED_EDGE('',*,*,#152,.T.);
#196=ORIENTED_EDGE('',*,*,#153,.T.);
#197=ORIENTED_EDGE('',*,*,#154,.T.);
#198=ORIENTED_EDGE('',*,*,#152,.F.);
#199=ORIENTED_EDGE('',*,*,#155,.F.);
#200=ORIENTED_EDGE('',*,*,#156,.F.);
#201=ORIENTED_EDGE('',*,*,#157,.T.);
#202=ORIENTED_EDGE('',*,*,#151,.T.);
#203=ORIENTED_EDGE('',*,*,#150,.T.);
#204=ORIENTED_EDGE('',*,*,#157,.F.);
#205=ORIENTED_EDGE('',*,*,#134,.T.);
#206=ORIENTED_EDGE('',*,*,#147,.F.);
#207=ORIENTED_EDGE('',*,*,#158,.T.);
#208=ORIENTED_EDGE('',*,*,#156,.T.);
#209=ORIENTED_EDGE('',*,*,#155,.T.);
#210=ORIENTED_EDGE('',*,*,#158,.F.);
#211=ORIENTED_EDGE('',*,*,#149,.F.);
#212=ORIENTED_EDGE('',*,*,#141,.T.);
#213=ORIENTED_EDGE('',*,*,#143,.T.);
#214=ORIENTED_EDGE('',*,*,#139,.T.);
#215=ORIENTED_EDGE('',*,*,#148,.F.);
#216=ORIENTED_EDGE('',*,*,#136,.T.);
#217=ORIENTED_EDGE('',*,*,#138,.T.);
#218=ORIENTED_EDGE('',*,*,#159,.F.);
#219=ORIENTED_EDGE('',*,*,#160,.F.);
#220=ORIENTED_EDGE('',*,*,#161,.T.);
#221=ORIENTED_EDGE('',*,*,#145,.T.);
#222=ORIENTED_EDGE('',*,*,#144,.T.);
#223=ORIENTED_EDGE('',*,*,#161,.F.);
#224=ORIENTED_EDGE('',*,*,#159,.T.);
#225=ORIENTED_EDGE('',*,*,#160,.T.);
#226=ORIENTED_EDGE('',*,*,#162,.F.);
#227=ORIENTED_EDGE('',*,*,#163,.F.);
#228=ORIENTED_EDGE('',*,*,#162,.T.);
#229=ORIENTED_EDGE('',*,*,#164,.T.);
#230=ORIENTED_EDGE('',*,*,#165,.F.);
#231=ORIENTED_EDGE('',*,*,#166,.F.);
#232=ORIENTED_EDGE('',*,*,#164,.F.);
#233=ORIENTED_EDGE('',*,*,#163,.T.);
#234=ORIENTED_EDGE('',*,*,#167,.F.);
#235=ORIENTED_EDGE('',*,*,#168,.F.);
#236=ORIENTED_EDGE('',*,*,#165,.T.);
#237=ORIENTED_EDGE('',*,*,#166,.T.);
#238=ORIENTED_EDGE('',*,*,#167,.T.);
#239=ORIENTED_EDGE('',*,*,#169,.T.);
#240=ORIENTED_EDGE('',*,*,#170,.F.);
#241=ORIENTED_EDGE('',*,*,#171,.F.);
#242=ORIENTED_EDGE('',*,*,#169,.F.);
#243=ORIENTED_EDGE('',*,*,#168,.T.);
#244=ORIENTED_EDGE('',*,*,#154,.F.);
#245=ORIENTED_EDGE('',*,*,#153,.F.);
#246=ORIENTED_EDGE('',*,*,#170,.T.);
#247=ORIENTED_EDGE('',*,*,#171,.T.);
#248=PLANE('',#289);
#249=PLANE('',#290);
#250=PLANE('',#292);
#251=PLANE('',#293);
#252=PLANE('',#313);
#253=PLANE('',#319);
#254=PLANE('',#325);
#255=ADVANCED_FACE('',(#48),#248,.F.);
#256=ADVANCED_FACE('',(#49),#249,.F.);
#257=ADVANCED_FACE('',(#50),#250,.F.);
#258=ADVANCED_FACE('',(#51),#251,.F.);
#259=ADVANCED_FACE('',(#52),#44,.T.);
#260=ADVANCED_FACE('',(#53),#18,.T.);
#261=ADVANCED_FACE('',(#54),#45,.T.);
#262=ADVANCED_FACE('',(#55),#19,.T.);
#263=ADVANCED_FACE('',(#56),#20,.T.);
#264=ADVANCED_FACE('',(#57,#15),#252,.T.);
#265=ADVANCED_FACE('',(#58),#21,.F.);
#266=ADVANCED_FACE('',(#59,#16),#253,.T.);
#267=ADVANCED_FACE('',(#60),#22,.F.);
#268=ADVANCED_FACE('',(#61,#17),#254,.T.);
#269=CLOSED_SHELL('',(#255,#256,#257,#258,#259,#260,#261,#262,#263,#264,
#265,#266,#267,#268));
#270=DERIVED_UNIT_ELEMENT(#272,1.);
#271=DERIVED_UNIT_ELEMENT(#504,3.);
#272=(
MASS_UNIT()
NAMED_UNIT(*)
SI_UNIT($,.GRAM.)
);
#273=DERIVED_UNIT((#270,#271));
#274=MEASURE_REPRESENTATION_ITEM('density measure',
POSITIVE_RATIO_MEASURE(8.),#273);
#275=PROPERTY_DEFINITION_REPRESENTATION(#280,#277);
#276=PROPERTY_DEFINITION_REPRESENTATION(#281,#278);
#277=REPRESENTATION('material name',(#279),#501);
#278=REPRESENTATION('density',(#274),#501);
#279=DESCRIPTIVE_REPRESENTATION_ITEM('Stainless Steel AISI 304',
'Stainless Steel AISI 304');
#280=PROPERTY_DEFINITION('material property','material name',#511);
#281=PROPERTY_DEFINITION('material property','density of part',#511);
#282=DATE_TIME_ROLE('creation_date');
#283=APPLIED_DATE_AND_TIME_ASSIGNMENT(#284,#282,(#511));
#284=DATE_AND_TIME(#285,#286);
#285=CALENDAR_DATE(2014,20,11);
#286=LOCAL_TIME(0,0,0.,#287);
#287=COORDINATED_UNIVERSAL_TIME_OFFSET(0,0,.BEHIND.);
#288=AXIS2_PLACEMENT_3D('placement',#415,#326,#327);
#289=AXIS2_PLACEMENT_3D('',#416,#328,#329);
#290=AXIS2_PLACEMENT_3D('',#427,#333,#334);
#291=AXIS2_PLACEMENT_3D('',#428,#335,#336);
#292=AXIS2_PLACEMENT_3D('',#429,#337,#338);
#293=AXIS2_PLACEMENT_3D('',#440,#342,#343);
#294=AXIS2_PLACEMENT_3D('',#441,#344,#345);
#295=AXIS2_PLACEMENT_3D('',#442,#346,#347);
#296=AXIS2_PLACEMENT_3D('',#445,#348,#349);
#297=AXIS2_PLACEMENT_3D('',#446,#350,#351);
#298=AXIS2_PLACEMENT_3D('',#449,#353,#354);
#299=AXIS2_PLACEMENT_3D('',#450,#355,#356);
#300=AXIS2_PLACEMENT_3D('',#451,#357,#358);
#301=AXIS2_PLACEMENT_3D('',#452,#359,#360);
#302=AXIS2_PLACEMENT_3D('',#455,#361,#362);
#303=AXIS2_PLACEMENT_3D('',#456,#363,#364);
#304=AXIS2_PLACEMENT_3D('',#460,#366,#367);
#305=AXIS2_PLACEMENT_3D('',#461,#368,#369);
#306=AXIS2_PLACEMENT_3D('',#462,#370,#371);
#307=AXIS2_PLACEMENT_3D('',#465,#372,#373);
#308=AXIS2_PLACEMENT_3D('',#466,#374,#375);
#309=AXIS2_PLACEMENT_3D('',#468,#377,#378);
#310=AXIS2_PLACEMENT_3D('',#470,#380,#381);
#311=AXIS2_PLACEMENT_3D('',#473,#382,#383);
#312=AXIS2_PLACEMENT_3D('',#474,#384,#385);
#313=AXIS2_PLACEMENT_3D('',#476,#387,#388);
#314=AXIS2_PLACEMENT_3D('',#479,#389,#390);
#315=AXIS2_PLACEMENT_3D('',#480,#391,#392);
#316=AXIS2_PLACEMENT_3D('',#481,#393,#394);
#317=AXIS2_PLACEMENT_3D('',#485,#396,#397);
#318=AXIS2_PLACEMENT_3D('',#486,#398,#399);
#319=AXIS2_PLACEMENT_3D('',#487,#400,#401);
#320=AXIS2_PLACEMENT_3D('',#490,#402,#403);
#321=AXIS2_PLACEMENT_3D('',#491,#404,#405);
#322=AXIS2_PLACEMENT_3D('',#492,#406,#407);
#323=AXIS2_PLACEMENT_3D('',#496,#409,#410);
#324=AXIS2_PLACEMENT_3D('',#497,#411,#412);
#325=AXIS2_PLACEMENT_3D('',#498,#413,#414);
#326=DIRECTION('axis',(0.,0.,1.));
#327=DIRECTION('refdir',(1.,0.,0.));
#328=DIRECTION('center_axis',(0.,-1.38777878078145E-16,1.));
#329=DIRECTION('ref_axis',(0.,-1.,-1.38777878078145E-16));
#330=DIRECTION('',(0.,1.,0.));
#331=DIRECTION('',(1.,0.,0.));
#332=DIRECTION('',(0.,-1.,0.));
#333=DIRECTION('center_axis',(0.,-0.707106781186547,0.707106781186548));
#334=DIRECTION('ref_axis',(0.,-0.707106781186548,-0.707106781186547));
#335=DIRECTION('center_axis',(0.,-0.707106781186547,0.707106781186548));
#336=DIRECTION('ref_axis',(0.,0.707106781186548,0.707106781186547));
#337=DIRECTION('center_axis',(0.,-1.38777878078145E-16,-1.));
#338=DIRECTION('ref_axis',(0.,1.,-1.38777878078145E-16));
#339=DIRECTION('',(0.,1.,0.));
#340=DIRECTION('',(1.,0.,0.));
#341=DIRECTION('',(0.,-1.,0.));
#342=DIRECTION('center_axis',(0.,-0.707106781186547,-0.707106781186548));
#343=DIRECTION('ref_axis',(0.,0.707106781186548,-0.707106781186547));
#344=DIRECTION('center_axis',(0.,-0.707106781186547,-0.707106781186548));
#345=DIRECTION('ref_axis',(0.,-0.707106781186548,0.707106781186547));
#346=DIRECTION('center_axis',(0.,-1.,0.));
#347=DIRECTION('ref_axis',(-1.,0.,0.));
#348=DIRECTION('center_axis',(0.,1.,0.));
#349=DIRECTION('ref_axis',(1.,0.,0.));
#350=DIRECTION('center_axis',(0.,1.,0.));
#351=DIRECTION('ref_axis',(1.,0.,0.));
#352=DIRECTION('',(0.707106781186546,-0.707106781186549,-8.65956056235491E-17));
#353=DIRECTION('center_axis',(0.,1.,0.));
#354=DIRECTION('ref_axis',(1.,0.,0.));
#355=DIRECTION('center_axis',(0.,1.,0.));
#356=DIRECTION('ref_axis',(1.,0.,0.));
#357=DIRECTION('center_axis',(0.,1.,0.));
#358=DIRECTION('ref_axis',(1.,0.,0.));
#359=DIRECTION('center_axis',(0.,1.,0.));
#360=DIRECTION('ref_axis',(-1.,0.,0.));
#361=DIRECTION('center_axis',(0.,1.,0.));
#362=DIRECTION('ref_axis',(1.,0.,0.));
#363=DIRECTION('center_axis',(0.,1.,0.));
#364=DIRECTION('ref_axis',(1.,0.,0.));
#365=DIRECTION('',(0.,-1.,0.));
#366=DIRECTION('center_axis',(0.,1.,0.));
#367=DIRECTION('ref_axis',(1.,0.,0.));
#368=DIRECTION('center_axis',(0.,1.,0.));
#369=DIRECTION('ref_axis',(1.,0.,0.));
#370=DIRECTION('center_axis',(0.,-1.,0.));
#371=DIRECTION('ref_axis',(-1.,0.,0.));
#372=DIRECTION('center_axis',(0.,1.,0.));
#373=DIRECTION('ref_axis',(1.,0.,0.));
#374=DIRECTION('center_axis',(0.,1.,0.));
#375=DIRECTION('ref_axis',(1.,0.,0.));
#376=DIRECTION('',(0.965925826289068,-0.258819045102521,-1.18291797137867E-16));
#377=DIRECTION('center_axis',(0.,1.,0.));
#378=DIRECTION('ref_axis',(-1.,0.,0.));
#379=DIRECTION('',(0.,-1.,0.));
#380=DIRECTION('center_axis',(0.,1.,0.));
#381=DIRECTION('ref_axis',(-1.,0.,0.));
#382=DIRECTION('center_axis',(0.,1.,0.));
#383=DIRECTION('ref_axis',(1.,0.,0.));
#384=DIRECTION('center_axis',(0.,1.,0.));
#385=DIRECTION('ref_axis',(1.,0.,0.));
#386=DIRECTION('',(0.,-1.,0.));
#387=DIRECTION('center_axis',(0.,1.,0.));
#388=DIRECTION('ref_axis',(0.,0.,1.));
#389=DIRECTION('center_axis',(0.,1.,0.));
#390=DIRECTION('ref_axis',(1.,0.,0.));
#391=DIRECTION('center_axis',(0.,1.,0.));
#392=DIRECTION('ref_axis',(1.,0.,0.));
#393=DIRECTION('center_axis',(0.,1.,0.));
#394=DIRECTION('ref_axis',(-1.,0.,0.));
#395=DIRECTION('',(0.,-1.,0.));
#396=DIRECTION('center_axis',(0.,1.,0.));
#397=DIRECTION('ref_axis',(1.,0.,0.));
#398=DIRECTION('center_axis',(0.,1.,0.));
#399=DIRECTION('ref_axis',(1.,0.,0.));
#400=DIRECTION('center_axis',(0.,-1.,0.));
#401=DIRECTION('ref_axis',(0.,0.,-1.));
#402=DIRECTION('center_axis',(0.,1.,0.));
#403=DIRECTION('ref_axis',(1.,0.,0.));
#404=DIRECTION('center_axis',(0.,1.,0.));
#405=DIRECTION('ref_axis',(1.,0.,0.));
#406=DIRECTION('center_axis',(0.,1.,0.));
#407=DIRECTION('ref_axis',(-1.,0.,0.));
#408=DIRECTION('',(0.,-1.,0.));
#409=DIRECTION('center_axis',(0.,1.,0.));
#410=DIRECTION('ref_axis',(1.,0.,0.));
#411=DIRECTION('center_axis',(0.,1.,0.));
#412=DIRECTION('ref_axis',(1.,0.,0.));
#413=DIRECTION('center_axis',(0.,-1.,0.));
#414=DIRECTION('ref_axis',(0.,0.,-1.));
#415=CARTESIAN_POINT('',(0.,0.,0.));
#416=CARTESIAN_POINT('Origin',(-15.,29.,-13.45));
#417=CARTESIAN_POINT('',(6.64059485287275,13.,-13.45));
#418=CARTESIAN_POINT('',(6.64059485287274,23.4,-13.45));
#419=CARTESIAN_POINT('',(6.64059485287275,13.8698729810778,-13.45));
#420=CARTESIAN_POINT('',(-6.64059485287275,13.,-13.45));
#421=CARTESIAN_POINT('',(-15.,13.,-13.45));
#422=CARTESIAN_POINT('',(-6.64059485287274,23.4,-13.45));
#423=CARTESIAN_POINT('',(-6.64059485287275,13.8698729810778,-13.45));
#424=CARTESIAN_POINT('Ctrl Pts',(6.64059485287274,23.4,-13.45));
#425=CARTESIAN_POINT('Ctrl Pts',(0.,26.3398333333333,-13.45));
#426=CARTESIAN_POINT('Ctrl Pts',(-6.64059485287274,23.4,-13.45));
#427=CARTESIAN_POINT('Origin',(-15.,13.,-13.45));
#428=CARTESIAN_POINT('Origin',(0.,26.45,0.));
#429=CARTESIAN_POINT('Origin',(-15.,13.,13.45));
#430=CARTESIAN_POINT('',(-6.64059485287275,13.,13.45));
#431=CARTESIAN_POINT('',(-6.64059485287274,23.4,13.45));
#432=CARTESIAN_POINT('',(-6.64059485287275,13.8698729810778,13.45));
#433=CARTESIAN_POINT('',(6.64059485287275,13.,13.45));
#434=CARTESIAN_POINT('',(-15.,13.,13.45));
#435=CARTESIAN_POINT('',(6.64059485287274,23.4,13.45));
#436=CARTESIAN_POINT('',(6.64059485287275,13.8698729810778,13.45));
#437=CARTESIAN_POINT('Ctrl Pts',(-6.64059485287274,23.4,13.45));
#438=CARTESIAN_POINT('Ctrl Pts',(0.,26.3398333333333,13.45));
#439=CARTESIAN_POINT('Ctrl Pts',(6.64059485287274,23.4,13.45));
#440=CARTESIAN_POINT('Origin',(-15.,8.45,18.));
#441=CARTESIAN_POINT('Origin',(0.,26.45,0.));
#442=CARTESIAN_POINT('Origin',(0.,24.2,0.));
#443=CARTESIAN_POINT('',(-13.4,25.,0.));
#444=CARTESIAN_POINT('',(13.4,25.,-1.64102671085745E-15));
#445=CARTESIAN_POINT('Origin',(0.,25.,0.));
#446=CARTESIAN_POINT('Origin',(0.,25.,0.));
#447=CARTESIAN_POINT('',(15.,23.4,-1.83697019872103E-15));
#448=CARTESIAN_POINT('',(14.2,24.2,-1.73899845478924E-15));
#449=CARTESIAN_POINT('Origin',(0.,23.4,0.));
#450=CARTESIAN_POINT('Origin',(0.,23.4,0.));
#451=CARTESIAN_POINT('Origin',(0.,23.4,0.));
#452=CARTESIAN_POINT('Origin',(0.,1.5,0.));
#453=CARTESIAN_POINT('',(-20.,3.,0.));
#454=CARTESIAN_POINT('',(20.,3.,-2.44929359829471E-15));
#455=CARTESIAN_POINT('Origin',(0.,3.,0.));
#456=CARTESIAN_POINT('Origin',(0.,3.,0.));
#457=CARTESIAN_POINT('',(20.,-1.66533453693773E-15,-2.44929359829471E-15));
#458=CARTESIAN_POINT('',(20.,1.5,-2.44929359829471E-15));
#459=CARTESIAN_POINT('',(-20.,-1.53080849893419E-15,0.));
#460=CARTESIAN_POINT('Origin',(0.,-1.53080849893419E-15,0.));
#461=CARTESIAN_POINT('Origin',(0.,-1.53080849893419E-15,0.));
#462=CARTESIAN_POINT('Origin',(0.,3.6698729810778,0.));
#463=CARTESIAN_POINT('',(-15.,4.33974596215561,0.));
#464=CARTESIAN_POINT('',(15.,4.33974596215561,-1.83697019872103E-15));
#465=CARTESIAN_POINT('Origin',(0.,4.33974596215561,0.));
#466=CARTESIAN_POINT('Origin',(0.,4.33974596215561,0.));
#467=CARTESIAN_POINT('',(17.5,3.6698729810778,-2.14313189850787E-15));
#468=CARTESIAN_POINT('Origin',(0.,13.8698729810778,0.));
#469=CARTESIAN_POINT('',(15.,13.8698729810778,-1.83697019872103E-15));
#470=CARTESIAN_POINT('Origin',(0.,32.5,0.));
#471=CARTESIAN_POINT('',(-13.4,40.,0.));
#472=CARTESIAN_POINT('',(13.4,40.,-1.64102671085745E-15));
#473=CARTESIAN_POINT('Origin',(0.,40.,0.));
#474=CARTESIAN_POINT('Origin',(0.,40.,0.));
#475=CARTESIAN_POINT('',(13.4,32.5,-1.64102671085745E-15));
#476=CARTESIAN_POINT('Origin',(-7.95000000000001,40.,0.));
#477=CARTESIAN_POINT('',(-7.95000000000001,40.,0.));
#478=CARTESIAN_POINT('',(7.95,40.,-9.73594205322146E-16));
#479=CARTESIAN_POINT('Origin',(0.,40.,0.));
#480=CARTESIAN_POINT('Origin',(0.,40.,0.));
#481=CARTESIAN_POINT('Origin',(0.,21.25,0.));
#482=CARTESIAN_POINT('',(7.95,2.5,-9.73594205322146E-16));
#483=CARTESIAN_POINT('',(7.95,21.25,-9.73594205322146E-16));
#484=CARTESIAN_POINT('',(-7.95,2.5,0.));
#485=CARTESIAN_POINT('Origin',(0.,2.5,0.));
#486=CARTESIAN_POINT('Origin',(0.,2.5,0.));
#487=CARTESIAN_POINT('Origin',(-13.1,2.5,0.));
#488=CARTESIAN_POINT('',(-13.1,2.5,0.));
#489=CARTESIAN_POINT('',(13.1,2.5,-1.60428730688303E-15));
#490=CARTESIAN_POINT('Origin',(0.,2.5,0.));
#491=CARTESIAN_POINT('Origin',(0.,2.5,0.));
#492=CARTESIAN_POINT('Origin',(0.,1.25,0.));
#493=CARTESIAN_POINT('',(13.1,-5.55111512312578E-16,-1.60428730688303E-15));
#494=CARTESIAN_POINT('',(13.1,1.25,-1.60428730688303E-15));
#495=CARTESIAN_POINT('',(-13.1,-5.55111512312578E-16,0.));
#496=CARTESIAN_POINT('Origin',(0.,-5.55111512312578E-16,0.));
#497=CARTESIAN_POINT('Origin',(0.,-5.55111512312578E-16,0.));
#498=CARTESIAN_POINT('Origin',(-20.,-1.53080849893419E-15,0.));
#499=UNCERTAINTY_MEASURE_WITH_UNIT(LENGTH_MEASURE(0.01),#503,
'DISTANCE_ACCURACY_VALUE',
'Maximum model space distance between geometric entities at asserted c
onnectivities');
#500=UNCERTAINTY_MEASURE_WITH_UNIT(LENGTH_MEASURE(0.01),#503,
'DISTANCE_ACCURACY_VALUE',
'Maximum model space distance between geometric entities at asserted c
onnectivities');
#501=(
GEOMETRIC_REPRESENTATION_CONTEXT(3)
GLOBAL_UNCERTAINTY_ASSIGNED_CONTEXT((#499))
GLOBAL_UNIT_ASSIGNED_CONTEXT((#503,#505,#506))
REPRESENTATION_CONTEXT('','3D')
);
#502=(
GEOMETRIC_REPRESENTATION_CONTEXT(3)
GLOBAL_UNCERTAINTY_ASSIGNED_CONTEXT((#500))
GLOBAL_UNIT_ASSIGNED_CONTEXT((#503,#505,#506))
REPRESENTATION_CONTEXT('','3D')
);
#503=(
LENGTH_UNIT()
NAMED_UNIT(*)
SI_UNIT(.MILLI.,.METRE.)
);
#504=(
LENGTH_UNIT()
NAMED_UNIT(*)
SI_UNIT(.CENTI.,.METRE.)
);
#505=(
NAMED_UNIT(*)
PLANE_ANGLE_UNIT()
SI_UNIT($,.RADIAN.)
);
#506=(
NAMED_UNIT(*)
SI_UNIT($,.STERADIAN.)
SOLID_ANGLE_UNIT()
);
#507=SHAPE_DEFINITION_REPRESENTATION(#508,#509);
#508=PRODUCT_DEFINITION_SHAPE('',$,#511);
#509=SHAPE_REPRESENTATION('',(#288),#501);
#510=PRODUCT_DEFINITION_CONTEXT('part definition',#515,'design');
#511=PRODUCT_DEFINITION('FL-16KF-1_8BSPM','FL-25KF-3-4BSPM',#512,#510);
#512=PRODUCT_DEFINITION_FORMATION('',$,#517);
#513=PRODUCT_RELATED_PRODUCT_CATEGORY('FL-25KF-3-4BSPM',
'FL-25KF-3-4BSPM',(#517));
#514=APPLICATION_PROTOCOL_DEFINITION('international standard',
'automotive_design',2009,#515);
#515=APPLICATION_CONTEXT(
'Core Data for Automotive Mechanical Design Process');
#516=PRODUCT_CONTEXT('part definition',#515,'mechanical');
#517=PRODUCT('FL-16KF-1_8BSPM','FL-25KF-3-4BSPM',$,(#516));
#518=PRESENTATION_STYLE_ASSIGNMENT((#519));
#519=SURFACE_STYLE_USAGE(.BOTH.,#522);
#520=SURFACE_STYLE_RENDERING_WITH_PROPERTIES($,#526,(#521));
#521=SURFACE_STYLE_TRANSPARENT(0.);
#522=SURFACE_SIDE_STYLE('',(#523,#520));
#523=SURFACE_STYLE_FILL_AREA(#524);
#524=FILL_AREA_STYLE('',(#525));
#525=FILL_AREA_STYLE_COLOUR('',#526);
#526=COLOUR_RGB('',0.745098039215686,0.737254901960784,0.729411764705882);
ENDSEC;
END-ISO-10303-21;
