ISO-10303-21;
HEADER;
/* Generated by software containing ST-Developer
 * from STEP Tools, Inc. (www.steptools.com) 
 */

FILE_DESCRIPTION(
/* description */ (''),
/* implementation_level */ '2;1');

FILE_NAME(
/* name */ 
'G:\\FLANGES & FITTINGS\\BSP Adapters\\Step Files\\FL-10KF-1_4BSPM.stp',

/* time_stamp */ '2019-03-12T09:02:18+00:00',
/* author */ ('paul'),
/* organization */ (''),
/* preprocessor_version */ 'ST-DEVELOPER v17.2',
/* originating_system */ 'Autodesk Inventor 2019',
/* authorisation */ '');

FILE_SCHEMA (('AUTOMOTIVE_DESIGN { 1 0 10303 214 3 1 1 }'));
ENDSEC;

DATA;
#10=MECHANICAL_DESIGN_GEOMETRIC_PRESENTATION_REPRESENTATION('',(#13),#527);
#11=SHAPE_REPRESENTATION_RELATIONSHIP('SRR','None',#534,#12);
#12=ADVANCED_BREP_SHAPE_REPRESENTATION('',(#14),#526);
#13=STYLED_ITEM('',(#543),#14);
#14=MANIFOLD_SOLID_BREP('Solid1',#281);
#15=FACE_BOUND('',#76,.T.);
#16=FACE_BOUND('',#79,.T.);
#17=FACE_BOUND('',#82,.T.);
#18=CYLINDRICAL_SURFACE('',#310,15.);
#19=CYLINDRICAL_SURFACE('',#318,8.);
#20=CYLINDRICAL_SURFACE('',#324,6.95);
#21=CYLINDRICAL_SURFACE('',#330,3.55);
#22=CYLINDRICAL_SURFACE('',#336,6.2);
#23=CIRCLE('',#308,8.);
#24=CIRCLE('',#309,6.95);
#25=CIRCLE('',#311,15.);
#26=CIRCLE('',#312,15.);
#27=CIRCLE('',#313,15.);
#28=CIRCLE('',#314,15.);
#29=CIRCLE('',#316,8.);
#30=CIRCLE('',#317,8.);
#31=CIRCLE('',#319,8.);
#32=CIRCLE('',#320,8.);
#33=CIRCLE('',#322,6.95);
#34=CIRCLE('',#323,6.95);
#35=CIRCLE('',#325,6.95);
#36=CIRCLE('',#326,6.95);
#37=CIRCLE('',#328,3.55);
#38=CIRCLE('',#329,3.55);
#39=CIRCLE('',#331,3.55);
#40=CIRCLE('',#332,3.55);
#41=CIRCLE('',#334,6.2);
#42=CIRCLE('',#335,6.2);
#43=CIRCLE('',#337,6.2);
#44=CIRCLE('',#338,6.2);
#45=CONICAL_SURFACE('',#307,7.475,0.785398163397447);
#46=CONICAL_SURFACE('',#315,11.5,1.30899693899575);
#47=CONICAL_SURFACE('',#321,7.475,0.785398163397447);
#48=ELLIPSE('',#303,11.3137084989848,8.);
#49=ELLIPSE('',#306,11.3137084989848,8.);
#50=FACE_OUTER_BOUND('',#65,.T.);
#51=FACE_OUTER_BOUND('',#66,.T.);
#52=FACE_OUTER_BOUND('',#67,.T.);
#53=FACE_OUTER_BOUND('',#68,.T.);
#54=FACE_OUTER_BOUND('',#69,.T.);
#55=FACE_OUTER_BOUND('',#70,.T.);
#56=FACE_OUTER_BOUND('',#71,.T.);
#57=FACE_OUTER_BOUND('',#72,.T.);
#58=FACE_OUTER_BOUND('',#73,.T.);
#59=FACE_OUTER_BOUND('',#74,.T.);
#60=FACE_OUTER_BOUND('',#75,.T.);
#61=FACE_OUTER_BOUND('',#77,.T.);
#62=FACE_OUTER_BOUND('',#78,.T.);
#63=FACE_OUTER_BOUND('',#80,.T.);
#64=FACE_OUTER_BOUND('',#81,.T.);
#65=EDGE_LOOP('',(#179,#180,#181,#182,#183));
#66=EDGE_LOOP('',(#184,#185));
#67=EDGE_LOOP('',(#186,#187,#188,#189,#190));
#68=EDGE_LOOP('',(#191,#192));
#69=EDGE_LOOP('',(#193,#194,#195,#196));
#70=EDGE_LOOP('',(#197,#198,#199,#200,#201,#202));
#71=EDGE_LOOP('',(#203,#204,#205,#206,#207,#208));
#72=EDGE_LOOP('',(#209,#210,#211,#212,#213,#214,#215,#216,#217,#218,#219,
#220,#221));
#73=EDGE_LOOP('',(#222,#223,#224,#225,#226,#227));
#74=EDGE_LOOP('',(#228,#229,#230,#231,#232,#233,#234));
#75=EDGE_LOOP('',(#235,#236));
#76=EDGE_LOOP('',(#237,#238));
#77=EDGE_LOOP('',(#239,#240,#241,#242,#243,#244));
#78=EDGE_LOOP('',(#245,#246));
#79=EDGE_LOOP('',(#247,#248));
#80=EDGE_LOOP('',(#249,#250,#251,#252,#253,#254));
#81=EDGE_LOOP('',(#255,#256));
#82=EDGE_LOOP('',(#257,#258));
#83=(
BOUNDED_CURVE()
B_SPLINE_CURVE(2,(#442,#443,#444),.UNSPECIFIED.,.F.,.F.)
B_SPLINE_CURVE_WITH_KNOTS((3,3),(0.412696400463559,0.825392800927118),
 .UNSPECIFIED.)
CURVE()
GEOMETRIC_REPRESENTATION_ITEM()
RATIONAL_B_SPLINE_CURVE((1.,1.03708223798566,1.))
REPRESENTATION_ITEM('')
);
#84=(
BOUNDED_CURVE()
B_SPLINE_CURVE(2,(#445,#446,#447),.UNSPECIFIED.,.F.,.F.)
B_SPLINE_CURVE_WITH_KNOTS((3,3),(0.,0.412696400463559),.UNSPECIFIED.)
CURVE()
GEOMETRIC_REPRESENTATION_ITEM()
RATIONAL_B_SPLINE_CURVE((1.,1.03708223798566,1.))
REPRESENTATION_ITEM('')
);
#85=(
BOUNDED_CURVE()
B_SPLINE_CURVE(2,(#459,#460,#461),.UNSPECIFIED.,.F.,.F.)
B_SPLINE_CURVE_WITH_KNOTS((3,3),(0.412696400463559,0.825392800927118),
 .UNSPECIFIED.)
CURVE()
GEOMETRIC_REPRESENTATION_ITEM()
RATIONAL_B_SPLINE_CURVE((1.,1.03708223798566,1.))
REPRESENTATION_ITEM('')
);
#86=(
BOUNDED_CURVE()
B_SPLINE_CURVE(2,(#462,#463,#464),.UNSPECIFIED.,.F.,.F.)
B_SPLINE_CURVE_WITH_KNOTS((3,3),(0.,0.412696400463559),.UNSPECIFIED.)
CURVE()
GEOMETRIC_REPRESENTATION_ITEM()
RATIONAL_B_SPLINE_CURVE((1.,1.03708223798566,1.))
REPRESENTATION_ITEM('')
);
#87=LINE('',#436,#99);
#88=LINE('',#438,#100);
#89=LINE('',#440,#101);
#90=LINE('',#453,#102);
#91=LINE('',#455,#103);
#92=LINE('',#457,#104);
#93=LINE('',#476,#105);
#94=LINE('',#485,#106);
#95=LINE('',#489,#107);
#96=LINE('',#500,#108);
#97=LINE('',#508,#109);
#98=LINE('',#519,#110);
#99=VECTOR('',#344,10.);
#100=VECTOR('',#345,10.);
#101=VECTOR('',#346,10.);
#102=VECTOR('',#353,10.);
#103=VECTOR('',#354,10.);
#104=VECTOR('',#355,10.);
#105=VECTOR('',#372,15.);
#106=VECTOR('',#383,11.5);
#107=VECTOR('',#388,8.);
#108=VECTOR('',#403,6.95);
#109=VECTOR('',#412,3.55);
#110=VECTOR('',#425,6.2);
#111=VERTEX_POINT('',#434);
#112=VERTEX_POINT('',#435);
#113=VERTEX_POINT('',#437);
#114=VERTEX_POINT('',#439);
#115=VERTEX_POINT('',#441);
#116=VERTEX_POINT('',#451);
#117=VERTEX_POINT('',#452);
#118=VERTEX_POINT('',#454);
#119=VERTEX_POINT('',#456);
#120=VERTEX_POINT('',#458);
#121=VERTEX_POINT('',#471);
#122=VERTEX_POINT('',#472);
#123=VERTEX_POINT('',#475);
#124=VERTEX_POINT('',#477);
#125=VERTEX_POINT('',#481);
#126=VERTEX_POINT('',#482);
#127=VERTEX_POINT('',#487);
#128=VERTEX_POINT('',#492);
#129=VERTEX_POINT('',#496);
#130=VERTEX_POINT('',#497);
#131=VERTEX_POINT('',#502);
#132=VERTEX_POINT('',#503);
#133=VERTEX_POINT('',#507);
#134=VERTEX_POINT('',#509);
#135=VERTEX_POINT('',#513);
#136=VERTEX_POINT('',#514);
#137=VERTEX_POINT('',#518);
#138=VERTEX_POINT('',#520);
#139=EDGE_CURVE('',#111,#112,#87,.T.);
#140=EDGE_CURVE('',#113,#111,#88,.T.);
#141=EDGE_CURVE('',#114,#113,#89,.T.);
#142=EDGE_CURVE('',#115,#114,#83,.T.);
#143=EDGE_CURVE('',#112,#115,#84,.T.);
#144=EDGE_CURVE('',#113,#111,#48,.T.);
#145=EDGE_CURVE('',#116,#117,#90,.T.);
#146=EDGE_CURVE('',#116,#118,#91,.T.);
#147=EDGE_CURVE('',#119,#118,#92,.T.);
#148=EDGE_CURVE('',#120,#119,#85,.T.);
#149=EDGE_CURVE('',#117,#120,#86,.T.);
#150=EDGE_CURVE('',#118,#116,#49,.T.);
#151=EDGE_CURVE('',#114,#117,#23,.T.);
#152=EDGE_CURVE('',#115,#120,#24,.T.);
#153=EDGE_CURVE('',#121,#122,#25,.T.);
#154=EDGE_CURVE('',#122,#121,#26,.T.);
#155=EDGE_CURVE('',#122,#123,#93,.T.);
#156=EDGE_CURVE('',#123,#124,#27,.T.);
#157=EDGE_CURVE('',#124,#123,#28,.T.);
#158=EDGE_CURVE('',#125,#126,#29,.T.);
#159=EDGE_CURVE('',#126,#125,#30,.T.);
#160=EDGE_CURVE('',#126,#122,#94,.T.);
#161=EDGE_CURVE('',#127,#112,#31,.T.);
#162=EDGE_CURVE('',#127,#126,#95,.T.);
#163=EDGE_CURVE('',#119,#127,#32,.T.);
#164=EDGE_CURVE('',#128,#115,#33,.T.);
#165=EDGE_CURVE('',#120,#128,#34,.T.);
#166=EDGE_CURVE('',#129,#130,#35,.T.);
#167=EDGE_CURVE('',#130,#129,#36,.T.);
#168=EDGE_CURVE('',#130,#128,#96,.T.);
#169=EDGE_CURVE('',#131,#132,#37,.T.);
#170=EDGE_CURVE('',#132,#131,#38,.T.);
#171=EDGE_CURVE('',#132,#133,#97,.T.);
#172=EDGE_CURVE('',#134,#133,#39,.T.);
#173=EDGE_CURVE('',#133,#134,#40,.T.);
#174=EDGE_CURVE('',#135,#136,#41,.T.);
#175=EDGE_CURVE('',#136,#135,#42,.T.);
#176=EDGE_CURVE('',#136,#137,#98,.T.);
#177=EDGE_CURVE('',#138,#137,#43,.T.);
#178=EDGE_CURVE('',#137,#138,#44,.T.);
#179=ORIENTED_EDGE('',*,*,#139,.F.);
#180=ORIENTED_EDGE('',*,*,#140,.F.);
#181=ORIENTED_EDGE('',*,*,#141,.F.);
#182=ORIENTED_EDGE('',*,*,#142,.F.);
#183=ORIENTED_EDGE('',*,*,#143,.F.);
#184=ORIENTED_EDGE('',*,*,#144,.F.);
#185=ORIENTED_EDGE('',*,*,#140,.T.);
#186=ORIENTED_EDGE('',*,*,#145,.F.);
#187=ORIENTED_EDGE('',*,*,#146,.T.);
#188=ORIENTED_EDGE('',*,*,#147,.F.);
#189=ORIENTED_EDGE('',*,*,#148,.F.);
#190=ORIENTED_EDGE('',*,*,#149,.F.);
#191=ORIENTED_EDGE('',*,*,#150,.F.);
#192=ORIENTED_EDGE('',*,*,#146,.F.);
#193=ORIENTED_EDGE('',*,*,#142,.T.);
#194=ORIENTED_EDGE('',*,*,#151,.T.);
#195=ORIENTED_EDGE('',*,*,#149,.T.);
#196=ORIENTED_EDGE('',*,*,#152,.F.);
#197=ORIENTED_EDGE('',*,*,#153,.F.);
#198=ORIENTED_EDGE('',*,*,#154,.F.);
#199=ORIENTED_EDGE('',*,*,#155,.T.);
#200=ORIENTED_EDGE('',*,*,#156,.T.);
#201=ORIENTED_EDGE('',*,*,#157,.T.);
#202=ORIENTED_EDGE('',*,*,#155,.F.);
#203=ORIENTED_EDGE('',*,*,#158,.F.);
#204=ORIENTED_EDGE('',*,*,#159,.F.);
#205=ORIENTED_EDGE('',*,*,#160,.T.);
#206=ORIENTED_EDGE('',*,*,#154,.T.);
#207=ORIENTED_EDGE('',*,*,#153,.T.);
#208=ORIENTED_EDGE('',*,*,#160,.F.);
#209=ORIENTED_EDGE('',*,*,#139,.T.);
#210=ORIENTED_EDGE('',*,*,#161,.F.);
#211=ORIENTED_EDGE('',*,*,#162,.T.);
#212=ORIENTED_EDGE('',*,*,#159,.T.);
#213=ORIENTED_EDGE('',*,*,#158,.T.);
#214=ORIENTED_EDGE('',*,*,#162,.F.);
#215=ORIENTED_EDGE('',*,*,#163,.F.);
#216=ORIENTED_EDGE('',*,*,#147,.T.);
#217=ORIENTED_EDGE('',*,*,#150,.T.);
#218=ORIENTED_EDGE('',*,*,#145,.T.);
#219=ORIENTED_EDGE('',*,*,#151,.F.);
#220=ORIENTED_EDGE('',*,*,#141,.T.);
#221=ORIENTED_EDGE('',*,*,#144,.T.);
#222=ORIENTED_EDGE('',*,*,#143,.T.);
#223=ORIENTED_EDGE('',*,*,#164,.F.);
#224=ORIENTED_EDGE('',*,*,#165,.F.);
#225=ORIENTED_EDGE('',*,*,#148,.T.);
#226=ORIENTED_EDGE('',*,*,#163,.T.);
#227=ORIENTED_EDGE('',*,*,#161,.T.);
#228=ORIENTED_EDGE('',*,*,#166,.F.);
#229=ORIENTED_EDGE('',*,*,#167,.F.);
#230=ORIENTED_EDGE('',*,*,#168,.T.);
#231=ORIENTED_EDGE('',*,*,#164,.T.);
#232=ORIENTED_EDGE('',*,*,#152,.T.);
#233=ORIENTED_EDGE('',*,*,#165,.T.);
#234=ORIENTED_EDGE('',*,*,#168,.F.);
#235=ORIENTED_EDGE('',*,*,#166,.T.);
#236=ORIENTED_EDGE('',*,*,#167,.T.);
#237=ORIENTED_EDGE('',*,*,#169,.F.);
#238=ORIENTED_EDGE('',*,*,#170,.F.);
#239=ORIENTED_EDGE('',*,*,#169,.T.);
#240=ORIENTED_EDGE('',*,*,#171,.T.);
#241=ORIENTED_EDGE('',*,*,#172,.F.);
#242=ORIENTED_EDGE('',*,*,#173,.F.);
#243=ORIENTED_EDGE('',*,*,#171,.F.);
#244=ORIENTED_EDGE('',*,*,#170,.T.);
#245=ORIENTED_EDGE('',*,*,#174,.F.);
#246=ORIENTED_EDGE('',*,*,#175,.F.);
#247=ORIENTED_EDGE('',*,*,#172,.T.);
#248=ORIENTED_EDGE('',*,*,#173,.T.);
#249=ORIENTED_EDGE('',*,*,#174,.T.);
#250=ORIENTED_EDGE('',*,*,#176,.T.);
#251=ORIENTED_EDGE('',*,*,#177,.F.);
#252=ORIENTED_EDGE('',*,*,#178,.F.);
#253=ORIENTED_EDGE('',*,*,#176,.F.);
#254=ORIENTED_EDGE('',*,*,#175,.T.);
#255=ORIENTED_EDGE('',*,*,#157,.F.);
#256=ORIENTED_EDGE('',*,*,#156,.F.);
#257=ORIENTED_EDGE('',*,*,#177,.T.);
#258=ORIENTED_EDGE('',*,*,#178,.T.);
#259=PLANE('',#301);
#260=PLANE('',#302);
#261=PLANE('',#304);
#262=PLANE('',#305);
#263=PLANE('',#327);
#264=PLANE('',#333);
#265=PLANE('',#339);
#266=ADVANCED_FACE('',(#50),#259,.F.);
#267=ADVANCED_FACE('',(#51),#260,.F.);
#268=ADVANCED_FACE('',(#52),#261,.F.);
#269=ADVANCED_FACE('',(#53),#262,.F.);
#270=ADVANCED_FACE('',(#54),#45,.T.);
#271=ADVANCED_FACE('',(#55),#18,.T.);
#272=ADVANCED_FACE('',(#56),#46,.T.);
#273=ADVANCED_FACE('',(#57),#19,.T.);
#274=ADVANCED_FACE('',(#58),#47,.T.);
#275=ADVANCED_FACE('',(#59),#20,.T.);
#276=ADVANCED_FACE('',(#60,#15),#263,.T.);
#277=ADVANCED_FACE('',(#61),#21,.F.);
#278=ADVANCED_FACE('',(#62,#16),#264,.T.);
#279=ADVANCED_FACE('',(#63),#22,.F.);
#280=ADVANCED_FACE('',(#64,#17),#265,.T.);
#281=CLOSED_SHELL('',(#266,#267,#268,#269,#270,#271,#272,#273,#274,#275,
#276,#277,#278,#279,#280));
#282=DERIVED_UNIT_ELEMENT(#284,1.);
#283=DERIVED_UNIT_ELEMENT(#529,3.);
#284=(
MASS_UNIT()
NAMED_UNIT(*)
SI_UNIT($,.GRAM.)
);
#285=DERIVED_UNIT((#282,#283));
#286=MEASURE_REPRESENTATION_ITEM('density measure',
POSITIVE_RATIO_MEASURE(8.),#285);
#287=PROPERTY_DEFINITION_REPRESENTATION(#292,#289);
#288=PROPERTY_DEFINITION_REPRESENTATION(#293,#290);
#289=REPRESENTATION('material name',(#291),#526);
#290=REPRESENTATION('density',(#286),#526);
#291=DESCRIPTIVE_REPRESENTATION_ITEM('Stainless Steel AISI 304',
'Stainless Steel AISI 304');
#292=PROPERTY_DEFINITION('material property','material name',#536);
#293=PROPERTY_DEFINITION('material property','density of part',#536);
#294=DATE_TIME_ROLE('creation_date');
#295=APPLIED_DATE_AND_TIME_ASSIGNMENT(#296,#294,(#536));
#296=DATE_AND_TIME(#297,#298);
#297=CALENDAR_DATE(2014,20,11);
#298=LOCAL_TIME(11,0,44.,#299);
#299=COORDINATED_UNIVERSAL_TIME_OFFSET(0,0,.BEHIND.);
#300=AXIS2_PLACEMENT_3D('placement',#432,#340,#341);
#301=AXIS2_PLACEMENT_3D('',#433,#342,#343);
#302=AXIS2_PLACEMENT_3D('',#448,#347,#348);
#303=AXIS2_PLACEMENT_3D('',#449,#349,#350);
#304=AXIS2_PLACEMENT_3D('',#450,#351,#352);
#305=AXIS2_PLACEMENT_3D('',#465,#356,#357);
#306=AXIS2_PLACEMENT_3D('',#466,#358,#359);
#307=AXIS2_PLACEMENT_3D('',#467,#360,#361);
#308=AXIS2_PLACEMENT_3D('',#468,#362,#363);
#309=AXIS2_PLACEMENT_3D('',#469,#364,#365);
#310=AXIS2_PLACEMENT_3D('',#470,#366,#367);
#311=AXIS2_PLACEMENT_3D('',#473,#368,#369);
#312=AXIS2_PLACEMENT_3D('',#474,#370,#371);
#313=AXIS2_PLACEMENT_3D('',#478,#373,#374);
#314=AXIS2_PLACEMENT_3D('',#479,#375,#376);
#315=AXIS2_PLACEMENT_3D('',#480,#377,#378);
#316=AXIS2_PLACEMENT_3D('',#483,#379,#380);
#317=AXIS2_PLACEMENT_3D('',#484,#381,#382);
#318=AXIS2_PLACEMENT_3D('',#486,#384,#385);
#319=AXIS2_PLACEMENT_3D('',#488,#386,#387);
#320=AXIS2_PLACEMENT_3D('',#490,#389,#390);
#321=AXIS2_PLACEMENT_3D('',#491,#391,#392);
#322=AXIS2_PLACEMENT_3D('',#493,#393,#394);
#323=AXIS2_PLACEMENT_3D('',#494,#395,#396);
#324=AXIS2_PLACEMENT_3D('',#495,#397,#398);
#325=AXIS2_PLACEMENT_3D('',#498,#399,#400);
#326=AXIS2_PLACEMENT_3D('',#499,#401,#402);
#327=AXIS2_PLACEMENT_3D('',#501,#404,#405);
#328=AXIS2_PLACEMENT_3D('',#504,#406,#407);
#329=AXIS2_PLACEMENT_3D('',#505,#408,#409);
#330=AXIS2_PLACEMENT_3D('',#506,#410,#411);
#331=AXIS2_PLACEMENT_3D('',#510,#413,#414);
#332=AXIS2_PLACEMENT_3D('',#511,#415,#416);
#333=AXIS2_PLACEMENT_3D('',#512,#417,#418);
#334=AXIS2_PLACEMENT_3D('',#515,#419,#420);
#335=AXIS2_PLACEMENT_3D('',#516,#421,#422);
#336=AXIS2_PLACEMENT_3D('',#517,#423,#424);
#337=AXIS2_PLACEMENT_3D('',#521,#426,#427);
#338=AXIS2_PLACEMENT_3D('',#522,#428,#429);
#339=AXIS2_PLACEMENT_3D('',#523,#430,#431);
#340=DIRECTION('axis',(0.,0.,1.));
#341=DIRECTION('refdir',(1.,0.,0.));
#342=DIRECTION('center_axis',(0.,0.,1.));
#343=DIRECTION('ref_axis',(0.,-1.,0.));
#344=DIRECTION('',(0.,1.,0.));
#345=DIRECTION('',(1.,0.,0.));
#346=DIRECTION('',(0.,-1.,0.));
#347=DIRECTION('center_axis',(0.,-0.707106781186548,0.707106781186548));
#348=DIRECTION('ref_axis',(0.,-0.707106781186548,-0.707106781186548));
#349=DIRECTION('center_axis',(0.,-0.707106781186548,0.707106781186548));
#350=DIRECTION('ref_axis',(0.,0.707106781186547,0.707106781186547));
#351=DIRECTION('center_axis',(0.,0.,-1.));
#352=DIRECTION('ref_axis',(0.,1.,0.));
#353=DIRECTION('',(0.,1.,0.));
#354=DIRECTION('',(1.,0.,0.));
#355=DIRECTION('',(0.,-1.,0.));
#356=DIRECTION('center_axis',(0.,-0.707106781186548,-0.707106781186548));
#357=DIRECTION('ref_axis',(0.,0.707106781186548,-0.707106781186548));
#358=DIRECTION('center_axis',(0.,-0.707106781186548,-0.707106781186548));
#359=DIRECTION('ref_axis',(0.,-0.707106781186547,0.707106781186547));
#360=DIRECTION('center_axis',(0.,-1.,0.));
#361=DIRECTION('ref_axis',(-1.,0.,0.));
#362=DIRECTION('center_axis',(0.,1.,0.));
#363=DIRECTION('ref_axis',(1.,0.,0.));
#364=DIRECTION('center_axis',(0.,1.,0.));
#365=DIRECTION('ref_axis',(1.,0.,0.));
#366=DIRECTION('center_axis',(0.,1.,0.));
#367=DIRECTION('ref_axis',(-1.,0.,0.));
#368=DIRECTION('center_axis',(0.,1.,0.));
#369=DIRECTION('ref_axis',(1.,0.,0.));
#370=DIRECTION('center_axis',(0.,1.,0.));
#371=DIRECTION('ref_axis',(1.,0.,0.));
#372=DIRECTION('',(0.,-1.,0.));
#373=DIRECTION('center_axis',(0.,1.,0.));
#374=DIRECTION('ref_axis',(1.,0.,0.));
#375=DIRECTION('center_axis',(0.,1.,0.));
#376=DIRECTION('ref_axis',(1.,0.,0.));
#377=DIRECTION('center_axis',(0.,-1.,0.));
#378=DIRECTION('ref_axis',(-1.,0.,0.));
#379=DIRECTION('center_axis',(0.,1.,0.));
#380=DIRECTION('ref_axis',(1.,0.,0.));
#381=DIRECTION('center_axis',(0.,1.,0.));
#382=DIRECTION('ref_axis',(1.,0.,0.));
#383=DIRECTION('',(0.965925826289068,-0.258819045102521,-1.18291797137867E-16));
#384=DIRECTION('center_axis',(0.,1.,0.));
#385=DIRECTION('ref_axis',(-1.,0.,0.));
#386=DIRECTION('center_axis',(0.,1.,0.));
#387=DIRECTION('ref_axis',(1.,0.,0.));
#388=DIRECTION('',(0.,-1.,0.));
#389=DIRECTION('center_axis',(0.,1.,0.));
#390=DIRECTION('ref_axis',(1.,0.,0.));
#391=DIRECTION('center_axis',(0.,-1.,0.));
#392=DIRECTION('ref_axis',(1.,0.,-1.22464679914735E-16));
#393=DIRECTION('center_axis',(0.,1.,0.));
#394=DIRECTION('ref_axis',(1.,0.,0.));
#395=DIRECTION('center_axis',(0.,1.,0.));
#396=DIRECTION('ref_axis',(1.,0.,0.));
#397=DIRECTION('center_axis',(0.,1.,0.));
#398=DIRECTION('ref_axis',(-1.,0.,0.));
#399=DIRECTION('center_axis',(0.,1.,0.));
#400=DIRECTION('ref_axis',(1.,0.,0.));
#401=DIRECTION('center_axis',(0.,1.,0.));
#402=DIRECTION('ref_axis',(1.,0.,0.));
#403=DIRECTION('',(0.,-1.,0.));
#404=DIRECTION('center_axis',(0.,1.,0.));
#405=DIRECTION('ref_axis',(0.,0.,1.));
#406=DIRECTION('center_axis',(0.,1.,0.));
#407=DIRECTION('ref_axis',(1.,0.,0.));
#408=DIRECTION('center_axis',(0.,1.,0.));
#409=DIRECTION('ref_axis',(1.,0.,0.));
#410=DIRECTION('center_axis',(0.,1.,0.));
#411=DIRECTION('ref_axis',(-1.,0.,0.));
#412=DIRECTION('',(0.,-1.,0.));
#413=DIRECTION('center_axis',(0.,1.,0.));
#414=DIRECTION('ref_axis',(1.,0.,0.));
#415=DIRECTION('center_axis',(0.,1.,0.));
#416=DIRECTION('ref_axis',(1.,0.,0.));
#417=DIRECTION('center_axis',(0.,-1.,0.));
#418=DIRECTION('ref_axis',(0.,0.,-1.));
#419=DIRECTION('center_axis',(0.,1.,0.));
#420=DIRECTION('ref_axis',(1.,0.,0.));
#421=DIRECTION('center_axis',(0.,1.,0.));
#422=DIRECTION('ref_axis',(1.,0.,0.));
#423=DIRECTION('center_axis',(0.,1.,0.));
#424=DIRECTION('ref_axis',(-1.,0.,0.));
#425=DIRECTION('',(0.,-1.,0.));
#426=DIRECTION('center_axis',(0.,1.,0.));
#427=DIRECTION('ref_axis',(1.,0.,0.));
#428=DIRECTION('center_axis',(0.,1.,0.));
#429=DIRECTION('ref_axis',(1.,0.,0.));
#430=DIRECTION('center_axis',(0.,-1.,0.));
#431=DIRECTION('ref_axis',(0.,0.,-1.));
#432=CARTESIAN_POINT('',(0.,0.,0.));
#433=CARTESIAN_POINT('Origin',(-8.,26.05,-6.95));
#434=CARTESIAN_POINT('',(3.9620070671315,13.1,-6.95));
#435=CARTESIAN_POINT('',(3.96200706713151,25.,-6.95));
#436=CARTESIAN_POINT('',(3.9620070671315,14.9378221735089,-6.95));
#437=CARTESIAN_POINT('',(-3.9620070671315,13.1,-6.95));
#438=CARTESIAN_POINT('',(-8.,13.1,-6.95));
#439=CARTESIAN_POINT('',(-3.96200706713151,25.,-6.95));
#440=CARTESIAN_POINT('',(-3.9620070671315,14.9378221735089,-6.95));
#441=CARTESIAN_POINT('',(0.,26.05,-6.95));
#442=CARTESIAN_POINT('Ctrl Pts',(0.,26.05,-6.95));
#443=CARTESIAN_POINT('Ctrl Pts',(-1.84186950612468,26.05,-6.95));
#444=CARTESIAN_POINT('Ctrl Pts',(-3.96200706713151,25.,-6.95));
#445=CARTESIAN_POINT('Ctrl Pts',(3.96200706713151,25.,-6.95));
#446=CARTESIAN_POINT('Ctrl Pts',(1.84186950612468,26.05,-6.95));
#447=CARTESIAN_POINT('Ctrl Pts',(0.,26.05,-6.95));
#448=CARTESIAN_POINT('Origin',(-8.,13.1,-6.95));
#449=CARTESIAN_POINT('Origin',(0.,20.05,0.));
#450=CARTESIAN_POINT('Origin',(-8.,13.1,6.95));
#451=CARTESIAN_POINT('',(-3.9620070671315,13.1,6.95));
#452=CARTESIAN_POINT('',(-3.96200706713151,25.,6.95));
#453=CARTESIAN_POINT('',(-3.9620070671315,14.9378221735089,6.95));
#454=CARTESIAN_POINT('',(3.9620070671315,13.1,6.95));
#455=CARTESIAN_POINT('',(-8.,13.1,6.95));
#456=CARTESIAN_POINT('',(3.96200706713151,25.,6.95));
#457=CARTESIAN_POINT('',(3.9620070671315,14.9378221735089,6.95));
#458=CARTESIAN_POINT('',(0.,26.05,6.95));
#459=CARTESIAN_POINT('Ctrl Pts',(0.,26.05,6.95));
#460=CARTESIAN_POINT('Ctrl Pts',(1.84186950612468,26.05,6.95));
#461=CARTESIAN_POINT('Ctrl Pts',(3.96200706713151,25.,6.95));
#462=CARTESIAN_POINT('Ctrl Pts',(-3.96200706713151,25.,6.95));
#463=CARTESIAN_POINT('Ctrl Pts',(-1.84186950612468,26.05,6.95));
#464=CARTESIAN_POINT('Ctrl Pts',(0.,26.05,6.95));
#465=CARTESIAN_POINT('Origin',(-8.,11.65,8.4));
#466=CARTESIAN_POINT('Origin',(0.,20.05,0.));
#467=CARTESIAN_POINT('Origin',(0.,25.525,0.));
#468=CARTESIAN_POINT('Origin',(0.,25.,0.));
#469=CARTESIAN_POINT('Origin',(0.,26.05,0.));
#470=CARTESIAN_POINT('Origin',(0.,1.5,0.));
#471=CARTESIAN_POINT('',(-15.,3.,0.));
#472=CARTESIAN_POINT('',(15.,3.,-1.83697019872103E-15));
#473=CARTESIAN_POINT('Origin',(0.,3.,0.));
#474=CARTESIAN_POINT('Origin',(0.,3.,0.));
#475=CARTESIAN_POINT('',(15.,0.,-1.83697019872103E-15));
#476=CARTESIAN_POINT('',(15.,1.5,-1.83697019872103E-15));
#477=CARTESIAN_POINT('',(-15.,0.,0.));
#478=CARTESIAN_POINT('Origin',(0.,0.,0.));
#479=CARTESIAN_POINT('Origin',(0.,0.,0.));
#480=CARTESIAN_POINT('Origin',(0.,3.93782217350893,0.));
#481=CARTESIAN_POINT('',(-8.,4.87564434701786,0.));
#482=CARTESIAN_POINT('',(8.,4.87564434701786,-9.79717439317882E-16));
#483=CARTESIAN_POINT('Origin',(0.,4.87564434701786,0.));
#484=CARTESIAN_POINT('Origin',(0.,4.87564434701786,0.));
#485=CARTESIAN_POINT('',(11.5,3.93782217350893,-1.40834381901946E-15));
#486=CARTESIAN_POINT('Origin',(0.,14.9378221735089,0.));
#487=CARTESIAN_POINT('',(8.,25.,-9.79717439317883E-16));
#488=CARTESIAN_POINT('Origin',(0.,25.,0.));
#489=CARTESIAN_POINT('',(8.,14.9378221735089,-9.79717439317883E-16));
#490=CARTESIAN_POINT('Origin',(0.,25.,0.));
#491=CARTESIAN_POINT('Origin',(0.,25.525,0.));
#492=CARTESIAN_POINT('',(6.95,26.05,-8.51129525407411E-16));
#493=CARTESIAN_POINT('Origin',(0.,26.05,0.));
#494=CARTESIAN_POINT('Origin',(0.,26.05,0.));
#495=CARTESIAN_POINT('Origin',(0.,30.525,0.));
#496=CARTESIAN_POINT('',(-6.95,35.,0.));
#497=CARTESIAN_POINT('',(6.95,35.,-8.51129525407411E-16));
#498=CARTESIAN_POINT('Origin',(0.,35.,0.));
#499=CARTESIAN_POINT('Origin',(0.,35.,0.));
#500=CARTESIAN_POINT('',(6.95,30.525,-8.51129525407411E-16));
#501=CARTESIAN_POINT('Origin',(-3.55,35.,0.));
#502=CARTESIAN_POINT('',(-3.55,35.,0.));
#503=CARTESIAN_POINT('',(3.55,35.,-4.3474961369731E-16));
#504=CARTESIAN_POINT('Origin',(0.,35.,0.));
#505=CARTESIAN_POINT('Origin',(0.,35.,0.));
#506=CARTESIAN_POINT('Origin',(0.,18.75,0.));
#507=CARTESIAN_POINT('',(3.55,2.5,-4.3474961369731E-16));
#508=CARTESIAN_POINT('',(3.55,18.75,-4.3474961369731E-16));
#509=CARTESIAN_POINT('',(-3.55,2.5,0.));
#510=CARTESIAN_POINT('Origin',(0.,2.5,0.));
#511=CARTESIAN_POINT('Origin',(0.,2.5,0.));
#512=CARTESIAN_POINT('Origin',(-6.2,2.5,0.));
#513=CARTESIAN_POINT('',(-6.2,2.5,0.));
#514=CARTESIAN_POINT('',(6.2,2.5,-7.59281015471359E-16));
#515=CARTESIAN_POINT('Origin',(0.,2.5,0.));
#516=CARTESIAN_POINT('Origin',(0.,2.5,0.));
#517=CARTESIAN_POINT('Origin',(0.,1.25,0.));
#518=CARTESIAN_POINT('',(6.2,2.77555756156289E-16,-7.59281015471359E-16));
#519=CARTESIAN_POINT('',(6.2,1.25,-7.59281015471359E-16));
#520=CARTESIAN_POINT('',(-6.2,2.77555756156289E-16,0.));
#521=CARTESIAN_POINT('Origin',(0.,2.77555756156289E-16,0.));
#522=CARTESIAN_POINT('Origin',(0.,2.77555756156289E-16,0.));
#523=CARTESIAN_POINT('Origin',(-15.,0.,0.));
#524=UNCERTAINTY_MEASURE_WITH_UNIT(LENGTH_MEASURE(0.01),#528,
'DISTANCE_ACCURACY_VALUE',
'Maximum model space distance between geometric entities at asserted c
onnectivities');
#525=UNCERTAINTY_MEASURE_WITH_UNIT(LENGTH_MEASURE(0.01),#528,
'DISTANCE_ACCURACY_VALUE',
'Maximum model space distance between geometric entities at asserted c
onnectivities');
#526=(
GEOMETRIC_REPRESENTATION_CONTEXT(3)
GLOBAL_UNCERTAINTY_ASSIGNED_CONTEXT((#524))
GLOBAL_UNIT_ASSIGNED_CONTEXT((#528,#530,#531))
REPRESENTATION_CONTEXT('','3D')
);
#527=(
GEOMETRIC_REPRESENTATION_CONTEXT(3)
GLOBAL_UNCERTAINTY_ASSIGNED_CONTEXT((#525))
GLOBAL_UNIT_ASSIGNED_CONTEXT((#528,#530,#531))
REPRESENTATION_CONTEXT('','3D')
);
#528=(
LENGTH_UNIT()
NAMED_UNIT(*)
SI_UNIT(.MILLI.,.METRE.)
);
#529=(
LENGTH_UNIT()
NAMED_UNIT(*)
SI_UNIT(.CENTI.,.METRE.)
);
#530=(
NAMED_UNIT(*)
PLANE_ANGLE_UNIT()
SI_UNIT($,.RADIAN.)
);
#531=(
NAMED_UNIT(*)
SI_UNIT($,.STERADIAN.)
SOLID_ANGLE_UNIT()
);
#532=SHAPE_DEFINITION_REPRESENTATION(#533,#534);
#533=PRODUCT_DEFINITION_SHAPE('',$,#536);
#534=SHAPE_REPRESENTATION('',(#300),#526);
#535=PRODUCT_DEFINITION_CONTEXT('part definition',#540,'design');
#536=PRODUCT_DEFINITION('FL-16KF-1_8BSPM','FL-10KF-1_4BSPM',#537,#535);
#537=PRODUCT_DEFINITION_FORMATION('',$,#542);
#538=PRODUCT_RELATED_PRODUCT_CATEGORY('FL-10KF-1_4BSPM',
'FL-10KF-1_4BSPM',(#542));
#539=APPLICATION_PROTOCOL_DEFINITION('international standard',
'automotive_design',2009,#540);
#540=APPLICATION_CONTEXT(
'Core Data for Automotive Mechanical Design Process');
#541=PRODUCT_CONTEXT('part definition',#540,'mechanical');
#542=PRODUCT('FL-16KF-1_8BSPM','FL-10KF-1_4BSPM',$,(#541));
#543=PRESENTATION_STYLE_ASSIGNMENT((#544));
#544=SURFACE_STYLE_USAGE(.BOTH.,#547);
#545=SURFACE_STYLE_RENDERING_WITH_PROPERTIES($,#551,(#546));
#546=SURFACE_STYLE_TRANSPARENT(1.);
#547=SURFACE_SIDE_STYLE('',(#548,#545));
#548=SURFACE_STYLE_FILL_AREA(#549);
#549=FILL_AREA_STYLE('',(#550));
#550=FILL_AREA_STYLE_COLOUR('',#551);
#551=COLOUR_RGB('',0.745098039215686,0.737254901960784,0.729411764705882);
ENDSEC;
END-ISO-10303-21;
