ISO-10303-21;
HEADER;
/* Generated by software containing ST-Developer
 * from STEP Tools, Inc. (www.steptools.com) 
 */

FILE_DESCRIPTION(
/* description */ (''),
/* implementation_level */ '2;1');

FILE_NAME(
/* name */ 'G:\\FLANGES & FITTINGS\\NW160LF\\Step files\\FL-160LF-W.st
p',
/* time_stamp */ '2019-04-10T14:31:29+01:00',
/* author */ ('paul'),
/* organization */ (''),
/* preprocessor_version */ 'ST-DEVELOPER v18',
/* originating_system */ 'Autodesk Inventor 2020',
/* authorisation */ '');

FILE_SCHEMA (('AUTOMOTIVE_DESIGN { 1 0 10303 214 3 1 1 }'));
ENDSEC;

DATA;
#10=MECHANICAL_DESIGN_GEOMETRIC_PRESENTATION_REPRESENTATION('',(#13),#552);
#11=SHAPE_REPRESENTATION_RELATIONSHIP('SRR','None',#559,#12);
#12=ADVANCED_BREP_SHAPE_REPRESENTATION('',(#14),#551);
#13=STYLED_ITEM('',(#568),#14);
#14=MANIFOLD_SOLID_BREP('Solid1',#290);
#15=TOROIDAL_SURFACE('',#330,90.,2.5);
#16=FACE_BOUND('',#54,.T.);
#17=FACE_BOUND('',#58,.T.);
#18=FACE_BOUND('',#62,.T.);
#19=FACE_BOUND('',#65,.T.);
#20=FACE_BOUND('',#68,.T.);
#21=FACE_BOUND('',#71,.T.);
#22=PLANE('',#317);
#23=PLANE('',#327);
#24=PLANE('',#335);
#25=PLANE('',#341);
#26=PLANE('',#347);
#27=PLANE('',#353);
#28=CYLINDRICAL_SURFACE('',#314,90.);
#29=CYLINDRICAL_SURFACE('',#324,90.);
#30=CYLINDRICAL_SURFACE('',#332,76.5);
#31=CYLINDRICAL_SURFACE('',#338,74.15);
#32=CYLINDRICAL_SURFACE('',#344,76.5);
#33=CYLINDRICAL_SURFACE('',#350,81.5);
#34=CYLINDRICAL_SURFACE('',#356,87.5);
#35=FACE_OUTER_BOUND('',#51,.T.);
#36=FACE_OUTER_BOUND('',#52,.T.);
#37=FACE_OUTER_BOUND('',#53,.T.);
#38=FACE_OUTER_BOUND('',#55,.T.);
#39=FACE_OUTER_BOUND('',#56,.T.);
#40=FACE_OUTER_BOUND('',#57,.T.);
#41=FACE_OUTER_BOUND('',#59,.T.);
#42=FACE_OUTER_BOUND('',#60,.T.);
#43=FACE_OUTER_BOUND('',#61,.T.);
#44=FACE_OUTER_BOUND('',#63,.T.);
#45=FACE_OUTER_BOUND('',#64,.T.);
#46=FACE_OUTER_BOUND('',#66,.T.);
#47=FACE_OUTER_BOUND('',#67,.T.);
#48=FACE_OUTER_BOUND('',#69,.T.);
#49=FACE_OUTER_BOUND('',#70,.T.);
#50=FACE_OUTER_BOUND('',#72,.T.);
#51=EDGE_LOOP('',(#192,#193,#194,#195,#196));
#52=EDGE_LOOP('',(#197,#198,#199,#200,#201,#202));
#53=EDGE_LOOP('',(#203));
#54=EDGE_LOOP('',(#204,#205));
#55=EDGE_LOOP('',(#206,#207,#208,#209,#210));
#56=EDGE_LOOP('',(#211,#212,#213,#214,#215,#216));
#57=EDGE_LOOP('',(#217));
#58=EDGE_LOOP('',(#218,#219));
#59=EDGE_LOOP('',(#220,#221,#222,#223,#224,#225));
#60=EDGE_LOOP('',(#226,#227,#228,#229,#230,#231));
#61=EDGE_LOOP('',(#232,#233));
#62=EDGE_LOOP('',(#234,#235));
#63=EDGE_LOOP('',(#236,#237,#238,#239,#240,#241));
#64=EDGE_LOOP('',(#242,#243));
#65=EDGE_LOOP('',(#244,#245));
#66=EDGE_LOOP('',(#246,#247,#248,#249,#250,#251));
#67=EDGE_LOOP('',(#252,#253));
#68=EDGE_LOOP('',(#254,#255));
#69=EDGE_LOOP('',(#256,#257,#258,#259,#260,#261));
#70=EDGE_LOOP('',(#262,#263));
#71=EDGE_LOOP('',(#264,#265));
#72=EDGE_LOOP('',(#266,#267,#268,#269,#270,#271));
#73=LINE('',#467,#82);
#74=LINE('',#473,#83);
#75=LINE('',#488,#84);
#76=LINE('',#495,#85);
#77=LINE('',#505,#86);
#78=LINE('',#516,#87);
#79=LINE('',#527,#88);
#80=LINE('',#541,#89);
#81=LINE('',#548,#90);
#82=VECTOR('',#363,89.75);
#83=VECTOR('',#370,90.);
#84=VECTOR('',#387,89.75);
#85=VECTOR('',#396,90.);
#86=VECTOR('',#409,76.5);
#87=VECTOR('',#422,74.15);
#88=VECTOR('',#435,76.5);
#89=VECTOR('',#452,81.5);
#90=VECTOR('',#461,87.5);
#91=CIRCLE('',#311,89.5);
#92=CIRCLE('',#312,90.);
#93=CIRCLE('',#313,90.);
#94=CIRCLE('',#315,90.);
#95=CIRCLE('',#316,90.);
#96=CIRCLE('',#318,76.5);
#97=CIRCLE('',#319,76.5);
#98=CIRCLE('',#321,90.);
#99=CIRCLE('',#322,90.);
#100=CIRCLE('',#323,89.5);
#101=CIRCLE('',#325,90.);
#102=CIRCLE('',#326,90.);
#103=CIRCLE('',#328,87.5);
#104=CIRCLE('',#329,87.5);
#105=CIRCLE('',#331,2.5);
#106=CIRCLE('',#333,76.5);
#107=CIRCLE('',#334,76.5);
#108=CIRCLE('',#336,74.15);
#109=CIRCLE('',#337,74.15);
#110=CIRCLE('',#339,74.15);
#111=CIRCLE('',#340,74.15);
#112=CIRCLE('',#342,76.5);
#113=CIRCLE('',#343,76.5);
#114=CIRCLE('',#345,76.5);
#115=CIRCLE('',#346,76.5);
#116=CIRCLE('',#348,81.5);
#117=CIRCLE('',#349,81.5);
#118=CIRCLE('',#351,81.5);
#119=CIRCLE('',#352,81.5);
#120=CIRCLE('',#354,87.5);
#121=CIRCLE('',#355,87.5);
#122=VERTEX_POINT('',#464);
#123=VERTEX_POINT('',#466);
#124=VERTEX_POINT('',#468);
#125=VERTEX_POINT('',#472);
#126=VERTEX_POINT('',#474);
#127=VERTEX_POINT('',#478);
#128=VERTEX_POINT('',#479);
#129=VERTEX_POINT('',#483);
#130=VERTEX_POINT('',#484);
#131=VERTEX_POINT('',#487);
#132=VERTEX_POINT('',#491);
#133=VERTEX_POINT('',#492);
#134=VERTEX_POINT('',#497);
#135=VERTEX_POINT('',#498);
#136=VERTEX_POINT('',#504);
#137=VERTEX_POINT('',#506);
#138=VERTEX_POINT('',#510);
#139=VERTEX_POINT('',#511);
#140=VERTEX_POINT('',#515);
#141=VERTEX_POINT('',#517);
#142=VERTEX_POINT('',#521);
#143=VERTEX_POINT('',#522);
#144=VERTEX_POINT('',#526);
#145=VERTEX_POINT('',#528);
#146=VERTEX_POINT('',#532);
#147=VERTEX_POINT('',#533);
#148=VERTEX_POINT('',#537);
#149=VERTEX_POINT('',#538);
#150=VERTEX_POINT('',#543);
#151=VERTEX_POINT('',#544);
#152=EDGE_CURVE('',#122,#122,#91,.T.);
#153=EDGE_CURVE('',#122,#123,#73,.T.);
#154=EDGE_CURVE('',#123,#124,#92,.T.);
#155=EDGE_CURVE('',#124,#123,#93,.T.);
#156=EDGE_CURVE('',#124,#125,#74,.T.);
#157=EDGE_CURVE('',#125,#126,#94,.T.);
#158=EDGE_CURVE('',#126,#125,#95,.T.);
#159=EDGE_CURVE('',#127,#128,#96,.T.);
#160=EDGE_CURVE('',#128,#127,#97,.T.);
#161=EDGE_CURVE('',#129,#130,#98,.T.);
#162=EDGE_CURVE('',#130,#129,#99,.T.);
#163=EDGE_CURVE('',#129,#131,#75,.T.);
#164=EDGE_CURVE('',#131,#131,#100,.T.);
#165=EDGE_CURVE('',#132,#133,#101,.T.);
#166=EDGE_CURVE('',#133,#132,#102,.T.);
#167=EDGE_CURVE('',#133,#130,#76,.T.);
#168=EDGE_CURVE('',#134,#135,#103,.T.);
#169=EDGE_CURVE('',#135,#134,#104,.T.);
#170=EDGE_CURVE('',#133,#125,#105,.T.);
#171=EDGE_CURVE('',#128,#136,#77,.T.);
#172=EDGE_CURVE('',#137,#136,#106,.T.);
#173=EDGE_CURVE('',#136,#137,#107,.T.);
#174=EDGE_CURVE('',#138,#139,#108,.T.);
#175=EDGE_CURVE('',#139,#138,#109,.T.);
#176=EDGE_CURVE('',#139,#140,#78,.T.);
#177=EDGE_CURVE('',#141,#140,#110,.T.);
#178=EDGE_CURVE('',#140,#141,#111,.T.);
#179=EDGE_CURVE('',#142,#143,#112,.T.);
#180=EDGE_CURVE('',#143,#142,#113,.T.);
#181=EDGE_CURVE('',#143,#144,#79,.T.);
#182=EDGE_CURVE('',#145,#144,#114,.T.);
#183=EDGE_CURVE('',#144,#145,#115,.T.);
#184=EDGE_CURVE('',#146,#147,#116,.T.);
#185=EDGE_CURVE('',#147,#146,#117,.T.);
#186=EDGE_CURVE('',#148,#149,#118,.T.);
#187=EDGE_CURVE('',#149,#148,#119,.T.);
#188=EDGE_CURVE('',#149,#147,#80,.T.);
#189=EDGE_CURVE('',#150,#151,#120,.T.);
#190=EDGE_CURVE('',#151,#150,#121,.T.);
#191=EDGE_CURVE('',#151,#135,#81,.T.);
#192=ORIENTED_EDGE('',*,*,#152,.T.);
#193=ORIENTED_EDGE('',*,*,#153,.T.);
#194=ORIENTED_EDGE('',*,*,#154,.T.);
#195=ORIENTED_EDGE('',*,*,#155,.T.);
#196=ORIENTED_EDGE('',*,*,#153,.F.);
#197=ORIENTED_EDGE('',*,*,#154,.F.);
#198=ORIENTED_EDGE('',*,*,#155,.F.);
#199=ORIENTED_EDGE('',*,*,#156,.T.);
#200=ORIENTED_EDGE('',*,*,#157,.T.);
#201=ORIENTED_EDGE('',*,*,#158,.T.);
#202=ORIENTED_EDGE('',*,*,#156,.F.);
#203=ORIENTED_EDGE('',*,*,#152,.F.);
#204=ORIENTED_EDGE('',*,*,#159,.F.);
#205=ORIENTED_EDGE('',*,*,#160,.F.);
#206=ORIENTED_EDGE('',*,*,#161,.T.);
#207=ORIENTED_EDGE('',*,*,#162,.T.);
#208=ORIENTED_EDGE('',*,*,#163,.T.);
#209=ORIENTED_EDGE('',*,*,#164,.T.);
#210=ORIENTED_EDGE('',*,*,#163,.F.);
#211=ORIENTED_EDGE('',*,*,#165,.F.);
#212=ORIENTED_EDGE('',*,*,#166,.F.);
#213=ORIENTED_EDGE('',*,*,#167,.T.);
#214=ORIENTED_EDGE('',*,*,#161,.F.);
#215=ORIENTED_EDGE('',*,*,#162,.F.);
#216=ORIENTED_EDGE('',*,*,#167,.F.);
#217=ORIENTED_EDGE('',*,*,#164,.F.);
#218=ORIENTED_EDGE('',*,*,#168,.T.);
#219=ORIENTED_EDGE('',*,*,#169,.T.);
#220=ORIENTED_EDGE('',*,*,#165,.T.);
#221=ORIENTED_EDGE('',*,*,#170,.T.);
#222=ORIENTED_EDGE('',*,*,#158,.F.);
#223=ORIENTED_EDGE('',*,*,#157,.F.);
#224=ORIENTED_EDGE('',*,*,#170,.F.);
#225=ORIENTED_EDGE('',*,*,#166,.T.);
#226=ORIENTED_EDGE('',*,*,#159,.T.);
#227=ORIENTED_EDGE('',*,*,#171,.T.);
#228=ORIENTED_EDGE('',*,*,#172,.F.);
#229=ORIENTED_EDGE('',*,*,#173,.F.);
#230=ORIENTED_EDGE('',*,*,#171,.F.);
#231=ORIENTED_EDGE('',*,*,#160,.T.);
#232=ORIENTED_EDGE('',*,*,#172,.T.);
#233=ORIENTED_EDGE('',*,*,#173,.T.);
#234=ORIENTED_EDGE('',*,*,#174,.F.);
#235=ORIENTED_EDGE('',*,*,#175,.F.);
#236=ORIENTED_EDGE('',*,*,#174,.T.);
#237=ORIENTED_EDGE('',*,*,#176,.T.);
#238=ORIENTED_EDGE('',*,*,#177,.F.);
#239=ORIENTED_EDGE('',*,*,#178,.F.);
#240=ORIENTED_EDGE('',*,*,#176,.F.);
#241=ORIENTED_EDGE('',*,*,#175,.T.);
#242=ORIENTED_EDGE('',*,*,#179,.F.);
#243=ORIENTED_EDGE('',*,*,#180,.F.);
#244=ORIENTED_EDGE('',*,*,#177,.T.);
#245=ORIENTED_EDGE('',*,*,#178,.T.);
#246=ORIENTED_EDGE('',*,*,#179,.T.);
#247=ORIENTED_EDGE('',*,*,#181,.T.);
#248=ORIENTED_EDGE('',*,*,#182,.F.);
#249=ORIENTED_EDGE('',*,*,#183,.F.);
#250=ORIENTED_EDGE('',*,*,#181,.F.);
#251=ORIENTED_EDGE('',*,*,#180,.T.);
#252=ORIENTED_EDGE('',*,*,#184,.F.);
#253=ORIENTED_EDGE('',*,*,#185,.F.);
#254=ORIENTED_EDGE('',*,*,#182,.T.);
#255=ORIENTED_EDGE('',*,*,#183,.T.);
#256=ORIENTED_EDGE('',*,*,#186,.F.);
#257=ORIENTED_EDGE('',*,*,#187,.F.);
#258=ORIENTED_EDGE('',*,*,#188,.T.);
#259=ORIENTED_EDGE('',*,*,#185,.T.);
#260=ORIENTED_EDGE('',*,*,#184,.T.);
#261=ORIENTED_EDGE('',*,*,#188,.F.);
#262=ORIENTED_EDGE('',*,*,#189,.F.);
#263=ORIENTED_EDGE('',*,*,#190,.F.);
#264=ORIENTED_EDGE('',*,*,#186,.T.);
#265=ORIENTED_EDGE('',*,*,#187,.T.);
#266=ORIENTED_EDGE('',*,*,#189,.T.);
#267=ORIENTED_EDGE('',*,*,#191,.T.);
#268=ORIENTED_EDGE('',*,*,#168,.F.);
#269=ORIENTED_EDGE('',*,*,#169,.F.);
#270=ORIENTED_EDGE('',*,*,#191,.F.);
#271=ORIENTED_EDGE('',*,*,#190,.T.);
#272=CONICAL_SURFACE('',#310,89.75,0.785398163397457);
#273=CONICAL_SURFACE('',#320,89.75,0.785398163397455);
#274=ADVANCED_FACE('',(#35),#272,.T.);
#275=ADVANCED_FACE('',(#36),#28,.T.);
#276=ADVANCED_FACE('',(#37,#16),#22,.T.);
#277=ADVANCED_FACE('',(#38),#273,.T.);
#278=ADVANCED_FACE('',(#39),#29,.T.);
#279=ADVANCED_FACE('',(#40,#17),#23,.T.);
#280=ADVANCED_FACE('',(#41),#15,.F.);
#281=ADVANCED_FACE('',(#42),#30,.F.);
#282=ADVANCED_FACE('',(#43,#18),#24,.T.);
#283=ADVANCED_FACE('',(#44),#31,.F.);
#284=ADVANCED_FACE('',(#45,#19),#25,.T.);
#285=ADVANCED_FACE('',(#46),#32,.F.);
#286=ADVANCED_FACE('',(#47,#20),#26,.T.);
#287=ADVANCED_FACE('',(#48),#33,.T.);
#288=ADVANCED_FACE('',(#49,#21),#27,.T.);
#289=ADVANCED_FACE('',(#50),#34,.F.);
#290=CLOSED_SHELL('',(#274,#275,#276,#277,#278,#279,#280,#281,#282,#283,
#284,#285,#286,#287,#288,#289));
#291=DERIVED_UNIT_ELEMENT(#293,1.);
#292=DERIVED_UNIT_ELEMENT(#554,3.);
#293=(
MASS_UNIT()
NAMED_UNIT(*)
SI_UNIT($,.GRAM.)
);
#294=DERIVED_UNIT((#291,#292));
#295=MEASURE_REPRESENTATION_ITEM('density measure',
POSITIVE_RATIO_MEASURE(8.),#294);
#296=PROPERTY_DEFINITION_REPRESENTATION(#301,#298);
#297=PROPERTY_DEFINITION_REPRESENTATION(#302,#299);
#298=REPRESENTATION('material name',(#300),#551);
#299=REPRESENTATION('density',(#295),#551);
#300=DESCRIPTIVE_REPRESENTATION_ITEM('Stainless Steel',
'Stainless Steel');
#301=PROPERTY_DEFINITION('material property','material name',#561);
#302=PROPERTY_DEFINITION('material property','density of part',#561);
#303=DATE_TIME_ROLE('creation_date');
#304=APPLIED_DATE_AND_TIME_ASSIGNMENT(#305,#303,(#561));
#305=DATE_AND_TIME(#306,#307);
#306=CALENDAR_DATE(2014,10,6);
#307=LOCAL_TIME(7,33,43.,#308);
#308=COORDINATED_UNIVERSAL_TIME_OFFSET(0,0,.BEHIND.);
#309=AXIS2_PLACEMENT_3D('placement',#462,#357,#358);
#310=AXIS2_PLACEMENT_3D('',#463,#359,#360);
#311=AXIS2_PLACEMENT_3D('',#465,#361,#362);
#312=AXIS2_PLACEMENT_3D('',#469,#364,#365);
#313=AXIS2_PLACEMENT_3D('',#470,#366,#367);
#314=AXIS2_PLACEMENT_3D('',#471,#368,#369);
#315=AXIS2_PLACEMENT_3D('',#475,#371,#372);
#316=AXIS2_PLACEMENT_3D('',#476,#373,#374);
#317=AXIS2_PLACEMENT_3D('',#477,#375,#376);
#318=AXIS2_PLACEMENT_3D('',#480,#377,#378);
#319=AXIS2_PLACEMENT_3D('',#481,#379,#380);
#320=AXIS2_PLACEMENT_3D('',#482,#381,#382);
#321=AXIS2_PLACEMENT_3D('',#485,#383,#384);
#322=AXIS2_PLACEMENT_3D('',#486,#385,#386);
#323=AXIS2_PLACEMENT_3D('',#489,#388,#389);
#324=AXIS2_PLACEMENT_3D('',#490,#390,#391);
#325=AXIS2_PLACEMENT_3D('',#493,#392,#393);
#326=AXIS2_PLACEMENT_3D('',#494,#394,#395);
#327=AXIS2_PLACEMENT_3D('',#496,#397,#398);
#328=AXIS2_PLACEMENT_3D('',#499,#399,#400);
#329=AXIS2_PLACEMENT_3D('',#500,#401,#402);
#330=AXIS2_PLACEMENT_3D('',#501,#403,#404);
#331=AXIS2_PLACEMENT_3D('',#502,#405,#406);
#332=AXIS2_PLACEMENT_3D('',#503,#407,#408);
#333=AXIS2_PLACEMENT_3D('',#507,#410,#411);
#334=AXIS2_PLACEMENT_3D('',#508,#412,#413);
#335=AXIS2_PLACEMENT_3D('',#509,#414,#415);
#336=AXIS2_PLACEMENT_3D('',#512,#416,#417);
#337=AXIS2_PLACEMENT_3D('',#513,#418,#419);
#338=AXIS2_PLACEMENT_3D('',#514,#420,#421);
#339=AXIS2_PLACEMENT_3D('',#518,#423,#424);
#340=AXIS2_PLACEMENT_3D('',#519,#425,#426);
#341=AXIS2_PLACEMENT_3D('',#520,#427,#428);
#342=AXIS2_PLACEMENT_3D('',#523,#429,#430);
#343=AXIS2_PLACEMENT_3D('',#524,#431,#432);
#344=AXIS2_PLACEMENT_3D('',#525,#433,#434);
#345=AXIS2_PLACEMENT_3D('',#529,#436,#437);
#346=AXIS2_PLACEMENT_3D('',#530,#438,#439);
#347=AXIS2_PLACEMENT_3D('',#531,#440,#441);
#348=AXIS2_PLACEMENT_3D('',#534,#442,#443);
#349=AXIS2_PLACEMENT_3D('',#535,#444,#445);
#350=AXIS2_PLACEMENT_3D('',#536,#446,#447);
#351=AXIS2_PLACEMENT_3D('',#539,#448,#449);
#352=AXIS2_PLACEMENT_3D('',#540,#450,#451);
#353=AXIS2_PLACEMENT_3D('',#542,#453,#454);
#354=AXIS2_PLACEMENT_3D('',#545,#455,#456);
#355=AXIS2_PLACEMENT_3D('',#546,#457,#458);
#356=AXIS2_PLACEMENT_3D('',#547,#459,#460);
#357=DIRECTION('axis',(0.,0.,1.));
#358=DIRECTION('refdir',(1.,0.,0.));
#359=DIRECTION('center_axis',(1.,0.,0.));
#360=DIRECTION('ref_axis',(0.,0.,-1.));
#361=DIRECTION('center_axis',(1.,0.,0.));
#362=DIRECTION('ref_axis',(0.,0.,-1.));
#363=DIRECTION('',(0.707106781186541,8.65956056235501E-17,0.707106781186554));
#364=DIRECTION('center_axis',(-1.,0.,0.));
#365=DIRECTION('ref_axis',(0.,0.,-1.));
#366=DIRECTION('center_axis',(-1.,0.,0.));
#367=DIRECTION('ref_axis',(0.,0.,-1.));
#368=DIRECTION('center_axis',(-1.,0.,0.));
#369=DIRECTION('ref_axis',(0.,0.,1.));
#370=DIRECTION('',(1.,0.,0.));
#371=DIRECTION('center_axis',(-1.,0.,0.));
#372=DIRECTION('ref_axis',(0.,0.,1.));
#373=DIRECTION('center_axis',(-1.,0.,0.));
#374=DIRECTION('ref_axis',(0.,0.,1.));
#375=DIRECTION('center_axis',(-1.,0.,0.));
#376=DIRECTION('ref_axis',(0.,0.,1.));
#377=DIRECTION('center_axis',(-1.,0.,0.));
#378=DIRECTION('ref_axis',(0.,0.,1.));
#379=DIRECTION('center_axis',(-1.,0.,0.));
#380=DIRECTION('ref_axis',(0.,0.,1.));
#381=DIRECTION('center_axis',(-1.,0.,0.));
#382=DIRECTION('ref_axis',(0.,0.,-1.));
#383=DIRECTION('center_axis',(1.,0.,0.));
#384=DIRECTION('ref_axis',(0.,0.,-1.));
#385=DIRECTION('center_axis',(1.,0.,0.));
#386=DIRECTION('ref_axis',(0.,0.,-1.));
#387=DIRECTION('',(0.707106781186543,-8.659560562355E-17,-0.707106781186553));
#388=DIRECTION('center_axis',(-1.,0.,0.));
#389=DIRECTION('ref_axis',(0.,0.,-1.));
#390=DIRECTION('center_axis',(-1.,0.,0.));
#391=DIRECTION('ref_axis',(0.,0.,1.));
#392=DIRECTION('center_axis',(-1.,0.,0.));
#393=DIRECTION('ref_axis',(0.,0.,1.));
#394=DIRECTION('center_axis',(-1.,0.,0.));
#395=DIRECTION('ref_axis',(0.,0.,1.));
#396=DIRECTION('',(1.,0.,0.));
#397=DIRECTION('center_axis',(1.,0.,0.));
#398=DIRECTION('ref_axis',(0.,0.,-1.));
#399=DIRECTION('center_axis',(-1.,0.,0.));
#400=DIRECTION('ref_axis',(0.,0.,1.));
#401=DIRECTION('center_axis',(-1.,0.,0.));
#402=DIRECTION('ref_axis',(0.,0.,1.));
#403=DIRECTION('center_axis',(-1.,0.,0.));
#404=DIRECTION('ref_axis',(0.,0.,1.));
#405=DIRECTION('center_axis',(0.,-1.,1.22464679914735E-16));
#406=DIRECTION('ref_axis',(0.,-1.22464679914735E-16,-1.));
#407=DIRECTION('center_axis',(-1.,0.,0.));
#408=DIRECTION('ref_axis',(0.,0.,1.));
#409=DIRECTION('',(1.,0.,0.));
#410=DIRECTION('center_axis',(-1.,0.,0.));
#411=DIRECTION('ref_axis',(0.,0.,1.));
#412=DIRECTION('center_axis',(-1.,0.,0.));
#413=DIRECTION('ref_axis',(0.,0.,1.));
#414=DIRECTION('center_axis',(-1.,0.,0.));
#415=DIRECTION('ref_axis',(0.,0.,1.));
#416=DIRECTION('center_axis',(-1.,0.,0.));
#417=DIRECTION('ref_axis',(0.,0.,1.));
#418=DIRECTION('center_axis',(-1.,0.,0.));
#419=DIRECTION('ref_axis',(0.,0.,1.));
#420=DIRECTION('center_axis',(-1.,0.,0.));
#421=DIRECTION('ref_axis',(0.,0.,1.));
#422=DIRECTION('',(1.,0.,0.));
#423=DIRECTION('center_axis',(-1.,0.,0.));
#424=DIRECTION('ref_axis',(0.,0.,1.));
#425=DIRECTION('center_axis',(-1.,0.,0.));
#426=DIRECTION('ref_axis',(0.,0.,1.));
#427=DIRECTION('center_axis',(1.,0.,0.));
#428=DIRECTION('ref_axis',(0.,0.,-1.));
#429=DIRECTION('center_axis',(-1.,0.,0.));
#430=DIRECTION('ref_axis',(0.,0.,1.));
#431=DIRECTION('center_axis',(-1.,0.,0.));
#432=DIRECTION('ref_axis',(0.,0.,1.));
#433=DIRECTION('center_axis',(-1.,0.,0.));
#434=DIRECTION('ref_axis',(0.,0.,1.));
#435=DIRECTION('',(1.,0.,0.));
#436=DIRECTION('center_axis',(-1.,0.,0.));
#437=DIRECTION('ref_axis',(0.,0.,1.));
#438=DIRECTION('center_axis',(-1.,0.,0.));
#439=DIRECTION('ref_axis',(0.,0.,1.));
#440=DIRECTION('center_axis',(1.,0.,0.));
#441=DIRECTION('ref_axis',(0.,0.,-1.));
#442=DIRECTION('center_axis',(-1.,0.,0.));
#443=DIRECTION('ref_axis',(0.,0.,1.));
#444=DIRECTION('center_axis',(-1.,0.,0.));
#445=DIRECTION('ref_axis',(0.,0.,1.));
#446=DIRECTION('center_axis',(-1.,0.,0.));
#447=DIRECTION('ref_axis',(0.,0.,1.));
#448=DIRECTION('center_axis',(-1.,0.,0.));
#449=DIRECTION('ref_axis',(0.,0.,1.));
#450=DIRECTION('center_axis',(-1.,0.,0.));
#451=DIRECTION('ref_axis',(0.,0.,1.));
#452=DIRECTION('',(1.,0.,0.));
#453=DIRECTION('center_axis',(1.,0.,0.));
#454=DIRECTION('ref_axis',(0.,0.,-1.));
#455=DIRECTION('center_axis',(-1.,0.,0.));
#456=DIRECTION('ref_axis',(0.,0.,1.));
#457=DIRECTION('center_axis',(-1.,0.,0.));
#458=DIRECTION('ref_axis',(0.,0.,1.));
#459=DIRECTION('center_axis',(-1.,0.,0.));
#460=DIRECTION('ref_axis',(0.,0.,1.));
#461=DIRECTION('',(1.,0.,0.));
#462=CARTESIAN_POINT('',(0.,0.,0.));
#463=CARTESIAN_POINT('Origin',(-11.75,0.,0.));
#464=CARTESIAN_POINT('',(-12.,-1.09605888523688E-14,89.5));
#465=CARTESIAN_POINT('Origin',(-12.,0.,0.));
#466=CARTESIAN_POINT('',(-11.5,1.10218211923262E-14,90.));
#467=CARTESIAN_POINT('',(-11.75,1.09912050223475E-14,89.75));
#468=CARTESIAN_POINT('',(-11.5,-1.10218211923262E-14,-90.));
#469=CARTESIAN_POINT('Origin',(-11.5,0.,0.));
#470=CARTESIAN_POINT('Origin',(-11.5,0.,0.));
#471=CARTESIAN_POINT('Origin',(-10.75,0.,0.));
#472=CARTESIAN_POINT('',(-9.5,-1.10218211923262E-14,-90.));
#473=CARTESIAN_POINT('',(-10.75,-1.10218211923262E-14,-90.));
#474=CARTESIAN_POINT('',(-9.5,0.,90.));
#475=CARTESIAN_POINT('Origin',(-9.5,0.,0.));
#476=CARTESIAN_POINT('Origin',(-9.5,0.,0.));
#477=CARTESIAN_POINT('Origin',(-12.,0.,76.5));
#478=CARTESIAN_POINT('',(-12.,0.,76.5));
#479=CARTESIAN_POINT('',(-12.,-9.36854801347725E-15,-76.5));
#480=CARTESIAN_POINT('Origin',(-12.,0.,0.));
#481=CARTESIAN_POINT('Origin',(-12.,0.,0.));
#482=CARTESIAN_POINT('Origin',(-0.25,0.,0.));
#483=CARTESIAN_POINT('',(-0.5,-1.10218211923262E-14,90.));
#484=CARTESIAN_POINT('',(-0.5,-1.10218211923262E-14,-90.));
#485=CARTESIAN_POINT('Origin',(-0.5,0.,0.));
#486=CARTESIAN_POINT('Origin',(-0.5,0.,0.));
#487=CARTESIAN_POINT('',(1.38777878078145E-16,1.09605888523688E-14,89.5));
#488=CARTESIAN_POINT('',(-0.25,1.09912050223475E-14,89.75));
#489=CARTESIAN_POINT('Origin',(1.38777878078145E-16,0.,0.));
#490=CARTESIAN_POINT('Origin',(-2.25,0.,0.));
#491=CARTESIAN_POINT('',(-4.5,0.,90.));
#492=CARTESIAN_POINT('',(-4.5,-1.10218211923262E-14,-90.));
#493=CARTESIAN_POINT('Origin',(-4.5,0.,0.));
#494=CARTESIAN_POINT('Origin',(-4.5,0.,0.));
#495=CARTESIAN_POINT('',(-2.25,-1.10218211923262E-14,-90.));
#496=CARTESIAN_POINT('Origin',(1.53080849893421E-16,0.,90.));
#497=CARTESIAN_POINT('',(-1.53080849893419E-16,0.,87.5));
#498=CARTESIAN_POINT('',(-1.38777878078145E-16,-1.07156594925393E-14,-87.5));
#499=CARTESIAN_POINT('Origin',(-1.53080849893419E-16,0.,0.));
#500=CARTESIAN_POINT('Origin',(-1.53080849893419E-16,0.,0.));
#501=CARTESIAN_POINT('Origin',(-7.,0.,0.));
#502=CARTESIAN_POINT('Origin',(-7.,-1.10218211923262E-14,-90.));
#503=CARTESIAN_POINT('Origin',(-9.75,0.,0.));
#504=CARTESIAN_POINT('',(-7.5,-9.36854801347725E-15,-76.5));
#505=CARTESIAN_POINT('',(-9.75,-9.36854801347725E-15,-76.5));
#506=CARTESIAN_POINT('',(-7.5,0.,76.5));
#507=CARTESIAN_POINT('Origin',(-7.5,0.,0.));
#508=CARTESIAN_POINT('Origin',(-7.5,0.,0.));
#509=CARTESIAN_POINT('Origin',(-7.5,0.,74.15));
#510=CARTESIAN_POINT('',(-7.5,0.,74.15));
#511=CARTESIAN_POINT('',(-7.5,-9.08075601567763E-15,-74.15));
#512=CARTESIAN_POINT('Origin',(-7.5,0.,0.));
#513=CARTESIAN_POINT('Origin',(-7.5,0.,0.));
#514=CARTESIAN_POINT('Origin',(-6.5,0.,0.));
#515=CARTESIAN_POINT('',(-5.5,-9.08075601567763E-15,-74.15));
#516=CARTESIAN_POINT('',(-6.5,-9.08075601567763E-15,-74.15));
#517=CARTESIAN_POINT('',(-5.5,0.,74.15));
#518=CARTESIAN_POINT('Origin',(-5.5,0.,0.));
#519=CARTESIAN_POINT('Origin',(-5.5,0.,0.));
#520=CARTESIAN_POINT('Origin',(-5.5,0.,76.5));
#521=CARTESIAN_POINT('',(-5.5,0.,76.5));
#522=CARTESIAN_POINT('',(-5.5,-9.36854801347725E-15,-76.5));
#523=CARTESIAN_POINT('Origin',(-5.5,0.,0.));
#524=CARTESIAN_POINT('Origin',(-5.5,0.,0.));
#525=CARTESIAN_POINT('Origin',(-2.75,0.,0.));
#526=CARTESIAN_POINT('',(4.44089209850063E-15,-9.36854801347725E-15,-76.5));
#527=CARTESIAN_POINT('',(-2.75,-9.36854801347725E-15,-76.5));
#528=CARTESIAN_POINT('',(4.37811230695179E-15,0.,76.5));
#529=CARTESIAN_POINT('Origin',(4.37811230695179E-15,0.,0.));
#530=CARTESIAN_POINT('Origin',(4.37811230695179E-15,0.,0.));
#531=CARTESIAN_POINT('Origin',(0.,0.,81.5));
#532=CARTESIAN_POINT('',(0.,0.,81.5));
#533=CARTESIAN_POINT('',(0.,-9.98087141305093E-15,-81.5));
#534=CARTESIAN_POINT('Origin',(0.,0.,0.));
#535=CARTESIAN_POINT('Origin',(0.,0.,0.));
#536=CARTESIAN_POINT('Origin',(-1.,0.,0.));
#537=CARTESIAN_POINT('',(-2.,0.,81.5));
#538=CARTESIAN_POINT('',(-2.,-9.98087141305093E-15,-81.5));
#539=CARTESIAN_POINT('Origin',(-2.,0.,0.));
#540=CARTESIAN_POINT('Origin',(-2.,0.,0.));
#541=CARTESIAN_POINT('',(-1.,-9.98087141305093E-15,-81.5));
#542=CARTESIAN_POINT('Origin',(-2.,0.,87.5));
#543=CARTESIAN_POINT('',(-2.,0.,87.5));
#544=CARTESIAN_POINT('',(-2.,-1.07156594925393E-14,-87.5));
#545=CARTESIAN_POINT('Origin',(-2.,0.,0.));
#546=CARTESIAN_POINT('Origin',(-2.,0.,0.));
#547=CARTESIAN_POINT('Origin',(-1.,0.,0.));
#548=CARTESIAN_POINT('',(-1.,-1.07156594925393E-14,-87.5));
#549=UNCERTAINTY_MEASURE_WITH_UNIT(LENGTH_MEASURE(0.01),#553,
'DISTANCE_ACCURACY_VALUE',
'Maximum model space distance between geometric entities at asserted c
onnectivities');
#550=UNCERTAINTY_MEASURE_WITH_UNIT(LENGTH_MEASURE(0.01),#553,
'DISTANCE_ACCURACY_VALUE',
'Maximum model space distance between geometric entities at asserted c
onnectivities');
#551=(
GEOMETRIC_REPRESENTATION_CONTEXT(3)
GLOBAL_UNCERTAINTY_ASSIGNED_CONTEXT((#549))
GLOBAL_UNIT_ASSIGNED_CONTEXT((#553,#555,#556))
REPRESENTATION_CONTEXT('','3D')
);
#552=(
GEOMETRIC_REPRESENTATION_CONTEXT(3)
GLOBAL_UNCERTAINTY_ASSIGNED_CONTEXT((#550))
GLOBAL_UNIT_ASSIGNED_CONTEXT((#553,#555,#556))
REPRESENTATION_CONTEXT('','3D')
);
#553=(
LENGTH_UNIT()
NAMED_UNIT(*)
SI_UNIT(.MILLI.,.METRE.)
);
#554=(
LENGTH_UNIT()
NAMED_UNIT(*)
SI_UNIT(.CENTI.,.METRE.)
);
#555=(
NAMED_UNIT(*)
PLANE_ANGLE_UNIT()
SI_UNIT($,.RADIAN.)
);
#556=(
NAMED_UNIT(*)
SI_UNIT($,.STERADIAN.)
SOLID_ANGLE_UNIT()
);
#557=SHAPE_DEFINITION_REPRESENTATION(#558,#559);
#558=PRODUCT_DEFINITION_SHAPE('',$,#561);
#559=SHAPE_REPRESENTATION('',(#309),#551);
#560=PRODUCT_DEFINITION_CONTEXT('part definition',#565,'design');
#561=PRODUCT_DEFINITION('FL-160LF-W','FL-160LF-W',#562,#560);
#562=PRODUCT_DEFINITION_FORMATION('',$,#567);
#563=PRODUCT_RELATED_PRODUCT_CATEGORY('FL-160LF-W','FL-160LF-W',(#567));
#564=APPLICATION_PROTOCOL_DEFINITION('international standard',
'automotive_design',2009,#565);
#565=APPLICATION_CONTEXT(
'Core Data for Automotive Mechanical Design Process');
#566=PRODUCT_CONTEXT('part definition',#565,'mechanical');
#567=PRODUCT('FL-160LF-W','FL-160LF-W',$,(#566));
#568=PRESENTATION_STYLE_ASSIGNMENT((#569));
#569=SURFACE_STYLE_USAGE(.BOTH.,#572);
#570=SURFACE_STYLE_RENDERING_WITH_PROPERTIES($,#576,(#571));
#571=SURFACE_STYLE_TRANSPARENT(0.);
#572=SURFACE_SIDE_STYLE('',(#573,#570));
#573=SURFACE_STYLE_FILL_AREA(#574);
#574=FILL_AREA_STYLE('',(#575));
#575=FILL_AREA_STYLE_COLOUR('',#576);
#576=COLOUR_RGB('',0.745098039215686,0.737254901960784,0.729411764705882);
ENDSEC;
END-ISO-10303-21;
