ISO-10303-21;
HEADER;
/* Generated by software containing ST-Developer
 * from STEP Tools, Inc. (www.steptools.com) 
 */

FILE_DESCRIPTION(
/* description */ (''),
/* implementation_level */ '2;1');

FILE_NAME(
/* name */ 
'G:\\FLANGES & FITTINGS\\Crosses KF 4 way\\Step files\\FL-4X50KF.stp',
/* time_stamp */ '2019-01-25T15:40:50+00:00',
/* author */ ('paul'),
/* organization */ (''),
/* preprocessor_version */ 'ST-DEVELOPER v17.2',
/* originating_system */ 'Autodesk Inventor 2019',
/* authorisation */ '');

FILE_SCHEMA (('AUTOMOTIVE_DESIGN { 1 0 10303 214 3 1 1 }'));
ENDSEC;

DATA;
#10=MECHANICAL_DESIGN_GEOMETRIC_PRESENTATION_REPRESENTATION('',(#48,#49),
#579);
#11=ITEM_DEFINED_TRANSFORMATION($,$,#335,#375);
#12=ITEM_DEFINED_TRANSFORMATION($,$,#335,#376);
#13=ITEM_DEFINED_TRANSFORMATION($,$,#335,#377);
#14=ITEM_DEFINED_TRANSFORMATION($,$,#335,#378);
#15=ITEM_DEFINED_TRANSFORMATION($,$,#347,#379);
#16=ITEM_DEFINED_TRANSFORMATION($,$,#347,#380);
#17=ITEM_DEFINED_TRANSFORMATION($,$,#347,#381);
#18=ITEM_DEFINED_TRANSFORMATION($,$,#347,#382);
#19=(
REPRESENTATION_RELATIONSHIP($,$,#599,#598)
REPRESENTATION_RELATIONSHIP_WITH_TRANSFORMATION(#11)
SHAPE_REPRESENTATION_RELATIONSHIP()
);
#20=(
REPRESENTATION_RELATIONSHIP($,$,#599,#598)
REPRESENTATION_RELATIONSHIP_WITH_TRANSFORMATION(#12)
SHAPE_REPRESENTATION_RELATIONSHIP()
);
#21=(
REPRESENTATION_RELATIONSHIP($,$,#599,#598)
REPRESENTATION_RELATIONSHIP_WITH_TRANSFORMATION(#13)
SHAPE_REPRESENTATION_RELATIONSHIP()
);
#22=(
REPRESENTATION_RELATIONSHIP($,$,#599,#598)
REPRESENTATION_RELATIONSHIP_WITH_TRANSFORMATION(#14)
SHAPE_REPRESENTATION_RELATIONSHIP()
);
#23=(
REPRESENTATION_RELATIONSHIP($,$,#600,#598)
REPRESENTATION_RELATIONSHIP_WITH_TRANSFORMATION(#15)
SHAPE_REPRESENTATION_RELATIONSHIP()
);
#24=(
REPRESENTATION_RELATIONSHIP($,$,#600,#598)
REPRESENTATION_RELATIONSHIP_WITH_TRANSFORMATION(#16)
SHAPE_REPRESENTATION_RELATIONSHIP()
);
#25=(
REPRESENTATION_RELATIONSHIP($,$,#600,#598)
REPRESENTATION_RELATIONSHIP_WITH_TRANSFORMATION(#17)
SHAPE_REPRESENTATION_RELATIONSHIP()
);
#26=(
REPRESENTATION_RELATIONSHIP($,$,#600,#598)
REPRESENTATION_RELATIONSHIP_WITH_TRANSFORMATION(#18)
SHAPE_REPRESENTATION_RELATIONSHIP()
);
#27=CONTEXT_DEPENDENT_SHAPE_REPRESENTATION(#19,#590);
#28=CONTEXT_DEPENDENT_SHAPE_REPRESENTATION(#20,#591);
#29=CONTEXT_DEPENDENT_SHAPE_REPRESENTATION(#21,#592);
#30=CONTEXT_DEPENDENT_SHAPE_REPRESENTATION(#22,#593);
#31=CONTEXT_DEPENDENT_SHAPE_REPRESENTATION(#23,#594);
#32=CONTEXT_DEPENDENT_SHAPE_REPRESENTATION(#24,#595);
#33=CONTEXT_DEPENDENT_SHAPE_REPRESENTATION(#25,#596);
#34=CONTEXT_DEPENDENT_SHAPE_REPRESENTATION(#26,#597);
#35=NEXT_ASSEMBLY_USAGE_OCCURRENCE('Tube:9','Tube:9','Tube:9',#602,#603,
'Tube:9');
#36=NEXT_ASSEMBLY_USAGE_OCCURRENCE('Tube:10','Tube:10','Tube:10',#602,#603,
'Tube:10');
#37=NEXT_ASSEMBLY_USAGE_OCCURRENCE('Tube:11','Tube:11','Tube:11',#602,#603,
'Tube:11');
#38=NEXT_ASSEMBLY_USAGE_OCCURRENCE('Tube:12','Tube:12','Tube:12',#602,#603,
'Tube:12');
#39=NEXT_ASSEMBLY_USAGE_OCCURRENCE('FL-50KF-51W:1','FL-50KF-51W:1',
'FL-50KF-51W:1',#602,#604,'FL-50KF-51W:1');
#40=NEXT_ASSEMBLY_USAGE_OCCURRENCE('FL-50KF-51W:2','FL-50KF-51W:2',
'FL-50KF-51W:2',#602,#604,'FL-50KF-51W:2');
#41=NEXT_ASSEMBLY_USAGE_OCCURRENCE('FL-50KF-51W:3','FL-50KF-51W:3',
'FL-50KF-51W:3',#602,#604,'FL-50KF-51W:3');
#42=NEXT_ASSEMBLY_USAGE_OCCURRENCE('FL-50KF-51W:4','FL-50KF-51W:4',
'FL-50KF-51W:4',#602,#604,'FL-50KF-51W:4');
#43=CONICAL_SURFACE('',#356,33.7679491924311,1.30899693899575);
#44=SHAPE_REPRESENTATION_RELATIONSHIP('SRR','None',#599,#46);
#45=SHAPE_REPRESENTATION_RELATIONSHIP('SRR','None',#600,#47);
#46=ADVANCED_BREP_SHAPE_REPRESENTATION('',(#50),#577);
#47=ADVANCED_BREP_SHAPE_REPRESENTATION('',(#51),#578);
#48=STYLED_ITEM('',(#307),#50);
#49=STYLED_ITEM('',(#307),#51);
#50=MANIFOLD_SOLID_BREP('Solid1',#282);
#51=MANIFOLD_SOLID_BREP('Solid1',#283);
#52=FACE_BOUND('',#102,.T.);
#53=FACE_BOUND('',#104,.T.);
#54=FACE_BOUND('',#108,.T.);
#55=FACE_BOUND('',#111,.T.);
#56=FACE_BOUND('',#114,.T.);
#57=CIRCLE('',#343,23.8);
#58=CIRCLE('',#345,25.4);
#59=CIRCLE('',#349,37.5);
#60=CIRCLE('',#350,37.5);
#61=CIRCLE('',#351,25.6);
#62=CIRCLE('',#352,25.6);
#63=CIRCLE('',#354,37.5);
#64=CIRCLE('',#355,37.5);
#65=CIRCLE('',#357,30.0358983848622);
#66=CIRCLE('',#358,30.0358983848622);
#67=CIRCLE('',#360,25.5);
#68=CIRCLE('',#361,25.5);
#69=CIRCLE('',#363,25.5);
#70=CIRCLE('',#364,25.5);
#71=CIRCLE('',#366,24.55);
#72=CIRCLE('',#367,24.55);
#73=CIRCLE('',#369,24.55);
#74=CIRCLE('',#370,24.55);
#75=CIRCLE('',#372,25.6);
#76=CIRCLE('',#373,25.6);
#77=CYLINDRICAL_SURFACE('',#342,23.8);
#78=CYLINDRICAL_SURFACE('',#344,25.4);
#79=CYLINDRICAL_SURFACE('',#353,37.5);
#80=CYLINDRICAL_SURFACE('',#362,25.5);
#81=CYLINDRICAL_SURFACE('',#368,24.55);
#82=CYLINDRICAL_SURFACE('',#374,25.6);
#83=FACE_OUTER_BOUND('',#97,.T.);
#84=FACE_OUTER_BOUND('',#98,.T.);
#85=FACE_OUTER_BOUND('',#99,.T.);
#86=FACE_OUTER_BOUND('',#100,.T.);
#87=FACE_OUTER_BOUND('',#101,.T.);
#88=FACE_OUTER_BOUND('',#103,.T.);
#89=FACE_OUTER_BOUND('',#105,.T.);
#90=FACE_OUTER_BOUND('',#106,.T.);
#91=FACE_OUTER_BOUND('',#107,.T.);
#92=FACE_OUTER_BOUND('',#109,.T.);
#93=FACE_OUTER_BOUND('',#110,.T.);
#94=FACE_OUTER_BOUND('',#112,.T.);
#95=FACE_OUTER_BOUND('',#113,.T.);
#96=FACE_OUTER_BOUND('',#115,.T.);
#97=EDGE_LOOP('',(#195,#196,#197,#198));
#98=EDGE_LOOP('',(#199,#200,#201,#202));
#99=EDGE_LOOP('',(#203,#204,#205,#206,#207));
#100=EDGE_LOOP('',(#208,#209,#210,#211,#212));
#101=EDGE_LOOP('',(#213));
#102=EDGE_LOOP('',(#214));
#103=EDGE_LOOP('',(#215,#216));
#104=EDGE_LOOP('',(#217,#218));
#105=EDGE_LOOP('',(#219,#220,#221,#222,#223,#224));
#106=EDGE_LOOP('',(#225,#226,#227,#228,#229,#230));
#107=EDGE_LOOP('',(#231,#232));
#108=EDGE_LOOP('',(#233,#234));
#109=EDGE_LOOP('',(#235,#236,#237,#238,#239,#240));
#110=EDGE_LOOP('',(#241,#242));
#111=EDGE_LOOP('',(#243,#244));
#112=EDGE_LOOP('',(#245,#246,#247,#248,#249,#250));
#113=EDGE_LOOP('',(#251,#252));
#114=EDGE_LOOP('',(#253,#254));
#115=EDGE_LOOP('',(#255,#256,#257,#258,#259,#260));
#116=LINE('',#497,#125);
#117=LINE('',#500,#126);
#118=LINE('',#506,#127);
#119=LINE('',#511,#128);
#120=LINE('',#528,#129);
#121=LINE('',#534,#130);
#122=LINE('',#542,#131);
#123=LINE('',#553,#132);
#124=LINE('',#563,#133);
#125=VECTOR('',#391,10.);
#126=VECTOR('',#394,10.);
#127=VECTOR('',#403,23.8);
#128=VECTOR('',#410,25.4);
#129=VECTOR('',#431,37.5);
#130=VECTOR('',#438,33.7679491924311);
#131=VECTOR('',#447,25.5);
#132=VECTOR('',#460,24.55);
#133=VECTOR('',#473,25.6);
#134=ELLIPSE('',#337,33.6582827844797,23.8);
#135=ELLIPSE('',#338,35.9210244842766,25.4);
#136=ELLIPSE('',#340,33.6582827844797,23.8);
#137=ELLIPSE('',#341,35.9210244842766,25.4);
#138=VERTEX_POINT('',#493);
#139=VERTEX_POINT('',#494);
#140=VERTEX_POINT('',#496);
#141=VERTEX_POINT('',#498);
#142=VERTEX_POINT('',#505);
#143=VERTEX_POINT('',#509);
#144=VERTEX_POINT('',#515);
#145=VERTEX_POINT('',#516);
#146=VERTEX_POINT('',#519);
#147=VERTEX_POINT('',#520);
#148=VERTEX_POINT('',#524);
#149=VERTEX_POINT('',#525);
#150=VERTEX_POINT('',#530);
#151=VERTEX_POINT('',#531);
#152=VERTEX_POINT('',#536);
#153=VERTEX_POINT('',#537);
#154=VERTEX_POINT('',#541);
#155=VERTEX_POINT('',#543);
#156=VERTEX_POINT('',#547);
#157=VERTEX_POINT('',#548);
#158=VERTEX_POINT('',#552);
#159=VERTEX_POINT('',#554);
#160=VERTEX_POINT('',#558);
#161=VERTEX_POINT('',#559);
#162=EDGE_CURVE('',#138,#139,#134,.T.);
#163=EDGE_CURVE('',#138,#140,#116,.T.);
#164=EDGE_CURVE('',#141,#140,#135,.T.);
#165=EDGE_CURVE('',#141,#139,#117,.T.);
#166=EDGE_CURVE('',#139,#138,#136,.T.);
#167=EDGE_CURVE('',#140,#141,#137,.T.);
#168=EDGE_CURVE('',#138,#142,#118,.T.);
#169=EDGE_CURVE('',#142,#142,#57,.T.);
#170=EDGE_CURVE('',#143,#143,#58,.T.);
#171=EDGE_CURVE('',#143,#140,#119,.T.);
#172=EDGE_CURVE('',#144,#145,#59,.T.);
#173=EDGE_CURVE('',#145,#144,#60,.T.);
#174=EDGE_CURVE('',#146,#147,#61,.T.);
#175=EDGE_CURVE('',#147,#146,#62,.T.);
#176=EDGE_CURVE('',#148,#149,#63,.T.);
#177=EDGE_CURVE('',#149,#148,#64,.T.);
#178=EDGE_CURVE('',#149,#145,#120,.T.);
#179=EDGE_CURVE('',#150,#151,#65,.T.);
#180=EDGE_CURVE('',#151,#150,#66,.T.);
#181=EDGE_CURVE('',#151,#149,#121,.T.);
#182=EDGE_CURVE('',#152,#153,#67,.T.);
#183=EDGE_CURVE('',#153,#152,#68,.T.);
#184=EDGE_CURVE('',#153,#154,#122,.T.);
#185=EDGE_CURVE('',#155,#154,#69,.T.);
#186=EDGE_CURVE('',#154,#155,#70,.T.);
#187=EDGE_CURVE('',#156,#157,#71,.T.);
#188=EDGE_CURVE('',#157,#156,#72,.T.);
#189=EDGE_CURVE('',#157,#158,#123,.T.);
#190=EDGE_CURVE('',#159,#158,#73,.T.);
#191=EDGE_CURVE('',#158,#159,#74,.T.);
#192=EDGE_CURVE('',#160,#161,#75,.T.);
#193=EDGE_CURVE('',#161,#160,#76,.T.);
#194=EDGE_CURVE('',#161,#147,#124,.T.);
#195=ORIENTED_EDGE('',*,*,#162,.F.);
#196=ORIENTED_EDGE('',*,*,#163,.T.);
#197=ORIENTED_EDGE('',*,*,#164,.F.);
#198=ORIENTED_EDGE('',*,*,#165,.T.);
#199=ORIENTED_EDGE('',*,*,#166,.F.);
#200=ORIENTED_EDGE('',*,*,#165,.F.);
#201=ORIENTED_EDGE('',*,*,#167,.F.);
#202=ORIENTED_EDGE('',*,*,#163,.F.);
#203=ORIENTED_EDGE('',*,*,#162,.T.);
#204=ORIENTED_EDGE('',*,*,#166,.T.);
#205=ORIENTED_EDGE('',*,*,#168,.T.);
#206=ORIENTED_EDGE('',*,*,#169,.F.);
#207=ORIENTED_EDGE('',*,*,#168,.F.);
#208=ORIENTED_EDGE('',*,*,#170,.F.);
#209=ORIENTED_EDGE('',*,*,#171,.T.);
#210=ORIENTED_EDGE('',*,*,#167,.T.);
#211=ORIENTED_EDGE('',*,*,#164,.T.);
#212=ORIENTED_EDGE('',*,*,#171,.F.);
#213=ORIENTED_EDGE('',*,*,#170,.T.);
#214=ORIENTED_EDGE('',*,*,#169,.T.);
#215=ORIENTED_EDGE('',*,*,#172,.F.);
#216=ORIENTED_EDGE('',*,*,#173,.F.);
#217=ORIENTED_EDGE('',*,*,#174,.T.);
#218=ORIENTED_EDGE('',*,*,#175,.T.);
#219=ORIENTED_EDGE('',*,*,#176,.F.);
#220=ORIENTED_EDGE('',*,*,#177,.F.);
#221=ORIENTED_EDGE('',*,*,#178,.T.);
#222=ORIENTED_EDGE('',*,*,#173,.T.);
#223=ORIENTED_EDGE('',*,*,#172,.T.);
#224=ORIENTED_EDGE('',*,*,#178,.F.);
#225=ORIENTED_EDGE('',*,*,#179,.F.);
#226=ORIENTED_EDGE('',*,*,#180,.F.);
#227=ORIENTED_EDGE('',*,*,#181,.T.);
#228=ORIENTED_EDGE('',*,*,#177,.T.);
#229=ORIENTED_EDGE('',*,*,#176,.T.);
#230=ORIENTED_EDGE('',*,*,#181,.F.);
#231=ORIENTED_EDGE('',*,*,#179,.T.);
#232=ORIENTED_EDGE('',*,*,#180,.T.);
#233=ORIENTED_EDGE('',*,*,#182,.F.);
#234=ORIENTED_EDGE('',*,*,#183,.F.);
#235=ORIENTED_EDGE('',*,*,#182,.T.);
#236=ORIENTED_EDGE('',*,*,#184,.T.);
#237=ORIENTED_EDGE('',*,*,#185,.F.);
#238=ORIENTED_EDGE('',*,*,#186,.F.);
#239=ORIENTED_EDGE('',*,*,#184,.F.);
#240=ORIENTED_EDGE('',*,*,#183,.T.);
#241=ORIENTED_EDGE('',*,*,#185,.T.);
#242=ORIENTED_EDGE('',*,*,#186,.T.);
#243=ORIENTED_EDGE('',*,*,#187,.F.);
#244=ORIENTED_EDGE('',*,*,#188,.F.);
#245=ORIENTED_EDGE('',*,*,#187,.T.);
#246=ORIENTED_EDGE('',*,*,#189,.T.);
#247=ORIENTED_EDGE('',*,*,#190,.F.);
#248=ORIENTED_EDGE('',*,*,#191,.F.);
#249=ORIENTED_EDGE('',*,*,#189,.F.);
#250=ORIENTED_EDGE('',*,*,#188,.T.);
#251=ORIENTED_EDGE('',*,*,#192,.F.);
#252=ORIENTED_EDGE('',*,*,#193,.F.);
#253=ORIENTED_EDGE('',*,*,#190,.T.);
#254=ORIENTED_EDGE('',*,*,#191,.T.);
#255=ORIENTED_EDGE('',*,*,#192,.T.);
#256=ORIENTED_EDGE('',*,*,#194,.T.);
#257=ORIENTED_EDGE('',*,*,#174,.F.);
#258=ORIENTED_EDGE('',*,*,#175,.F.);
#259=ORIENTED_EDGE('',*,*,#194,.F.);
#260=ORIENTED_EDGE('',*,*,#193,.T.);
#261=PLANE('',#336);
#262=PLANE('',#339);
#263=PLANE('',#346);
#264=PLANE('',#348);
#265=PLANE('',#359);
#266=PLANE('',#365);
#267=PLANE('',#371);
#268=ADVANCED_FACE('',(#83),#261,.F.);
#269=ADVANCED_FACE('',(#84),#262,.F.);
#270=ADVANCED_FACE('',(#85),#77,.F.);
#271=ADVANCED_FACE('',(#86),#78,.T.);
#272=ADVANCED_FACE('',(#87,#52),#263,.T.);
#273=ADVANCED_FACE('',(#88,#53),#264,.T.);
#274=ADVANCED_FACE('',(#89),#79,.T.);
#275=ADVANCED_FACE('',(#90),#43,.T.);
#276=ADVANCED_FACE('',(#91,#54),#265,.T.);
#277=ADVANCED_FACE('',(#92),#80,.F.);
#278=ADVANCED_FACE('',(#93,#55),#266,.T.);
#279=ADVANCED_FACE('',(#94),#81,.F.);
#280=ADVANCED_FACE('',(#95,#56),#267,.T.);
#281=ADVANCED_FACE('',(#96),#82,.F.);
#282=CLOSED_SHELL('',(#268,#269,#270,#271,#272));
#283=CLOSED_SHELL('',(#273,#274,#275,#276,#277,#278,#279,#280,#281));
#284=DERIVED_UNIT_ELEMENT(#288,1.);
#285=DERIVED_UNIT_ELEMENT(#581,3.);
#286=DERIVED_UNIT_ELEMENT(#288,1.);
#287=DERIVED_UNIT_ELEMENT(#581,3.);
#288=(
MASS_UNIT()
NAMED_UNIT(*)
SI_UNIT($,.GRAM.)
);
#289=DERIVED_UNIT((#284,#285));
#290=DERIVED_UNIT((#286,#287));
#291=MEASURE_REPRESENTATION_ITEM('density measure',
POSITIVE_RATIO_MEASURE(8.),#289);
#292=MEASURE_REPRESENTATION_ITEM('density measure',
POSITIVE_RATIO_MEASURE(8.),#290);
#293=PROPERTY_DEFINITION_REPRESENTATION(#303,#297);
#294=PROPERTY_DEFINITION_REPRESENTATION(#304,#298);
#295=PROPERTY_DEFINITION_REPRESENTATION(#305,#299);
#296=PROPERTY_DEFINITION_REPRESENTATION(#306,#300);
#297=REPRESENTATION('material name',(#301),#577);
#298=REPRESENTATION('density',(#291),#577);
#299=REPRESENTATION('material name',(#302),#578);
#300=REPRESENTATION('density',(#292),#578);
#301=DESCRIPTIVE_REPRESENTATION_ITEM('Stainless Steel AISI 304',
'Stainless Steel AISI 304');
#302=DESCRIPTIVE_REPRESENTATION_ITEM('Stainless Steel AISI 304',
'Stainless Steel AISI 304');
#303=PROPERTY_DEFINITION('material property','material name',#603);
#304=PROPERTY_DEFINITION('material property','density of part',#603);
#305=PROPERTY_DEFINITION('material property','material name',#604);
#306=PROPERTY_DEFINITION('material property','density of part',#604);
#307=PRESENTATION_STYLE_ASSIGNMENT((#308));
#308=SURFACE_STYLE_USAGE(.BOTH.,#311);
#309=SURFACE_STYLE_RENDERING_WITH_PROPERTIES($,#315,(#310));
#310=SURFACE_STYLE_TRANSPARENT(1.);
#311=SURFACE_SIDE_STYLE('',(#312,#309));
#312=SURFACE_STYLE_FILL_AREA(#313);
#313=FILL_AREA_STYLE('',(#314));
#314=FILL_AREA_STYLE_COLOUR('',#315);
#315=COLOUR_RGB('',0.745098039215686,0.737254901960784,0.729411764705882);
#316=DATE_TIME_ROLE('creation_date');
#317=DATE_TIME_ROLE('creation_date');
#318=DATE_TIME_ROLE('creation_date');
#319=APPLIED_DATE_AND_TIME_ASSIGNMENT(#322,#316,(#602));
#320=APPLIED_DATE_AND_TIME_ASSIGNMENT(#323,#317,(#603));
#321=APPLIED_DATE_AND_TIME_ASSIGNMENT(#324,#318,(#604));
#322=DATE_AND_TIME(#325,#328);
#323=DATE_AND_TIME(#326,#329);
#324=DATE_AND_TIME(#327,#330);
#325=CALENDAR_DATE(2018,9,7);
#326=CALENDAR_DATE(2018,9,7);
#327=CALENDAR_DATE(2014,15,8);
#328=LOCAL_TIME(9,3,33.,#331);
#329=LOCAL_TIME(8,59,55.,#332);
#330=LOCAL_TIME(10,33,6.,#333);
#331=COORDINATED_UNIVERSAL_TIME_OFFSET(0,0,.BEHIND.);
#332=COORDINATED_UNIVERSAL_TIME_OFFSET(0,0,.BEHIND.);
#333=COORDINATED_UNIVERSAL_TIME_OFFSET(0,0,.BEHIND.);
#334=AXIS2_PLACEMENT_3D('placement',#490,#383,#384);
#335=AXIS2_PLACEMENT_3D('placement',#491,#385,#386);
#336=AXIS2_PLACEMENT_3D('',#492,#387,#388);
#337=AXIS2_PLACEMENT_3D('',#495,#389,#390);
#338=AXIS2_PLACEMENT_3D('',#499,#392,#393);
#339=AXIS2_PLACEMENT_3D('',#501,#395,#396);
#340=AXIS2_PLACEMENT_3D('',#502,#397,#398);
#341=AXIS2_PLACEMENT_3D('',#503,#399,#400);
#342=AXIS2_PLACEMENT_3D('',#504,#401,#402);
#343=AXIS2_PLACEMENT_3D('',#507,#404,#405);
#344=AXIS2_PLACEMENT_3D('',#508,#406,#407);
#345=AXIS2_PLACEMENT_3D('',#510,#408,#409);
#346=AXIS2_PLACEMENT_3D('',#512,#411,#412);
#347=AXIS2_PLACEMENT_3D('placement',#513,#413,#414);
#348=AXIS2_PLACEMENT_3D('',#514,#415,#416);
#349=AXIS2_PLACEMENT_3D('',#517,#417,#418);
#350=AXIS2_PLACEMENT_3D('',#518,#419,#420);
#351=AXIS2_PLACEMENT_3D('',#521,#421,#422);
#352=AXIS2_PLACEMENT_3D('',#522,#423,#424);
#353=AXIS2_PLACEMENT_3D('',#523,#425,#426);
#354=AXIS2_PLACEMENT_3D('',#526,#427,#428);
#355=AXIS2_PLACEMENT_3D('',#527,#429,#430);
#356=AXIS2_PLACEMENT_3D('',#529,#432,#433);
#357=AXIS2_PLACEMENT_3D('',#532,#434,#435);
#358=AXIS2_PLACEMENT_3D('',#533,#436,#437);
#359=AXIS2_PLACEMENT_3D('',#535,#439,#440);
#360=AXIS2_PLACEMENT_3D('',#538,#441,#442);
#361=AXIS2_PLACEMENT_3D('',#539,#443,#444);
#362=AXIS2_PLACEMENT_3D('',#540,#445,#446);
#363=AXIS2_PLACEMENT_3D('',#544,#448,#449);
#364=AXIS2_PLACEMENT_3D('',#545,#450,#451);
#365=AXIS2_PLACEMENT_3D('',#546,#452,#453);
#366=AXIS2_PLACEMENT_3D('',#549,#454,#455);
#367=AXIS2_PLACEMENT_3D('',#550,#456,#457);
#368=AXIS2_PLACEMENT_3D('',#551,#458,#459);
#369=AXIS2_PLACEMENT_3D('',#555,#461,#462);
#370=AXIS2_PLACEMENT_3D('',#556,#463,#464);
#371=AXIS2_PLACEMENT_3D('',#557,#465,#466);
#372=AXIS2_PLACEMENT_3D('',#560,#467,#468);
#373=AXIS2_PLACEMENT_3D('',#561,#469,#470);
#374=AXIS2_PLACEMENT_3D('',#562,#471,#472);
#375=AXIS2_PLACEMENT_3D('',#564,#474,#475);
#376=AXIS2_PLACEMENT_3D('',#565,#476,#477);
#377=AXIS2_PLACEMENT_3D('',#566,#478,#479);
#378=AXIS2_PLACEMENT_3D('',#567,#480,#481);
#379=AXIS2_PLACEMENT_3D('',#568,#482,#483);
#380=AXIS2_PLACEMENT_3D('',#569,#484,#485);
#381=AXIS2_PLACEMENT_3D('',#570,#486,#487);
#382=AXIS2_PLACEMENT_3D('',#571,#488,#489);
#383=DIRECTION('axis',(0.,0.,1.));
#384=DIRECTION('refdir',(1.,0.,0.));
#385=DIRECTION('axis',(0.,0.,1.));
#386=DIRECTION('refdir',(1.,0.,0.));
#387=DIRECTION('center_axis',(-8.24195516369435E-17,0.707106781186547,0.707106781186548));
#388=DIRECTION('ref_axis',(-8.65956056235493E-17,0.707106781186548,-0.707106781186547));
#389=DIRECTION('center_axis',(8.24195516369435E-17,-0.707106781186547,-0.707106781186548));
#390=DIRECTION('ref_axis',(0.,-0.707106781186548,0.707106781186547));
#391=DIRECTION('',(1.,1.16558847729675E-16,0.));
#392=DIRECTION('center_axis',(-8.24195516369435E-17,0.707106781186547,0.707106781186548));
#393=DIRECTION('ref_axis',(0.,-0.707106781186548,0.707106781186548));
#394=DIRECTION('',(1.,1.16558847729675E-16,0.));
#395=DIRECTION('center_axis',(8.24195516369436E-17,-0.707106781186548,0.707106781186547));
#396=DIRECTION('ref_axis',(-8.65956056235493E-17,0.707106781186547,0.707106781186548));
#397=DIRECTION('center_axis',(-8.24195516369436E-17,0.707106781186548,-0.707106781186547));
#398=DIRECTION('ref_axis',(0.,-0.707106781186547,-0.707106781186548));
#399=DIRECTION('center_axis',(8.24195516369436E-17,-0.707106781186548,0.707106781186547));
#400=DIRECTION('ref_axis',(0.,-0.707106781186547,-0.707106781186548));
#401=DIRECTION('center_axis',(0.,0.,1.));
#402=DIRECTION('ref_axis',(-1.,0.,0.));
#403=DIRECTION('',(0.,0.,1.));
#404=DIRECTION('center_axis',(0.,0.,-1.));
#405=DIRECTION('ref_axis',(-1.,0.,0.));
#406=DIRECTION('center_axis',(0.,0.,1.));
#407=DIRECTION('ref_axis',(-1.,0.,0.));
#408=DIRECTION('center_axis',(0.,0.,1.));
#409=DIRECTION('ref_axis',(-1.,0.,0.));
#410=DIRECTION('',(0.,0.,-1.));
#411=DIRECTION('center_axis',(0.,0.,1.));
#412=DIRECTION('ref_axis',(1.,0.,0.));
#413=DIRECTION('axis',(0.,0.,1.));
#414=DIRECTION('refdir',(1.,0.,0.));
#415=DIRECTION('center_axis',(0.,-1.,0.));
#416=DIRECTION('ref_axis',(0.,0.,-1.));
#417=DIRECTION('center_axis',(0.,1.,0.));
#418=DIRECTION('ref_axis',(1.,0.,0.));
#419=DIRECTION('center_axis',(0.,1.,0.));
#420=DIRECTION('ref_axis',(1.,0.,0.));
#421=DIRECTION('center_axis',(0.,1.,0.));
#422=DIRECTION('ref_axis',(1.,0.,0.));
#423=DIRECTION('center_axis',(0.,1.,0.));
#424=DIRECTION('ref_axis',(1.,0.,0.));
#425=DIRECTION('center_axis',(0.,1.,0.));
#426=DIRECTION('ref_axis',(-1.,0.,0.));
#427=DIRECTION('center_axis',(0.,1.,0.));
#428=DIRECTION('ref_axis',(1.,0.,0.));
#429=DIRECTION('center_axis',(0.,1.,0.));
#430=DIRECTION('ref_axis',(1.,0.,0.));
#431=DIRECTION('',(0.,-1.,0.));
#432=DIRECTION('center_axis',(0.,-1.,0.));
#433=DIRECTION('ref_axis',(-1.,0.,0.));
#434=DIRECTION('center_axis',(0.,1.,0.));
#435=DIRECTION('ref_axis',(1.,0.,0.));
#436=DIRECTION('center_axis',(0.,1.,0.));
#437=DIRECTION('ref_axis',(1.,0.,0.));
#438=DIRECTION('',(0.965925826289069,-0.258819045102519,-1.18291797137867E-16));
#439=DIRECTION('center_axis',(0.,1.,0.));
#440=DIRECTION('ref_axis',(0.,0.,1.));
#441=DIRECTION('center_axis',(0.,1.,0.));
#442=DIRECTION('ref_axis',(1.,0.,0.));
#443=DIRECTION('center_axis',(0.,1.,0.));
#444=DIRECTION('ref_axis',(1.,0.,0.));
#445=DIRECTION('center_axis',(0.,1.,0.));
#446=DIRECTION('ref_axis',(-1.,0.,0.));
#447=DIRECTION('',(0.,-1.,0.));
#448=DIRECTION('center_axis',(0.,1.,0.));
#449=DIRECTION('ref_axis',(1.,0.,0.));
#450=DIRECTION('center_axis',(0.,1.,0.));
#451=DIRECTION('ref_axis',(1.,0.,0.));
#452=DIRECTION('center_axis',(0.,1.,0.));
#453=DIRECTION('ref_axis',(0.,0.,1.));
#454=DIRECTION('center_axis',(0.,1.,0.));
#455=DIRECTION('ref_axis',(1.,0.,0.));
#456=DIRECTION('center_axis',(0.,1.,0.));
#457=DIRECTION('ref_axis',(1.,0.,0.));
#458=DIRECTION('center_axis',(0.,1.,0.));
#459=DIRECTION('ref_axis',(-1.,0.,0.));
#460=DIRECTION('',(0.,-1.,0.));
#461=DIRECTION('center_axis',(0.,1.,0.));
#462=DIRECTION('ref_axis',(1.,0.,0.));
#463=DIRECTION('center_axis',(0.,1.,0.));
#464=DIRECTION('ref_axis',(1.,0.,0.));
#465=DIRECTION('center_axis',(0.,-1.,0.));
#466=DIRECTION('ref_axis',(0.,0.,-1.));
#467=DIRECTION('center_axis',(0.,1.,0.));
#468=DIRECTION('ref_axis',(1.,0.,0.));
#469=DIRECTION('center_axis',(0.,1.,0.));
#470=DIRECTION('ref_axis',(1.,0.,0.));
#471=DIRECTION('center_axis',(0.,1.,0.));
#472=DIRECTION('ref_axis',(-1.,0.,0.));
#473=DIRECTION('',(0.,-1.,0.));
#474=DIRECTION('',(0.,0.,1.));
#475=DIRECTION('',(1.,0.,0.));
#476=DIRECTION('',(1.16558847729675E-16,-1.,-2.22044604925031E-16));
#477=DIRECTION('',(-1.,-1.16558847729675E-16,1.16558847729675E-16));
#478=DIRECTION('',(-1.16558847729675E-16,1.,9.9920072216264E-16));
#479=DIRECTION('',(-1.,-1.16558847729675E-16,-1.16558847729675E-16));
#480=DIRECTION('',(6.65471982463755E-32,-4.9960036108132E-16,-1.));
#481=DIRECTION('',(-1.,-2.3311769545935E-16,4.99184865795612E-32));
#482=DIRECTION('',(-1.16558847729675E-16,1.,-1.66533453693773E-16));
#483=DIRECTION('',(-1.,-1.16558847729675E-16,1.03233888966546E-31));
#484=DIRECTION('',(-5.73269981976555E-32,-7.7715611723761E-16,1.));
#485=DIRECTION('',(-1.,-1.16558847729675E-16,-1.4791141972894E-31));
#486=DIRECTION('',(-1.29406316473263E-32,1.11022302462516E-16,-1.));
#487=DIRECTION('',(-1.,-1.16558847729675E-16,-3.28429327576129E-47));
#488=DIRECTION('',(-1.16558847729675E-16,1.,3.59174680201366E-49));
#489=DIRECTION('',(1.,1.16558847729675E-16,-1.79587340100683E-49));
#490=CARTESIAN_POINT('',(0.,0.,0.));
#491=CARTESIAN_POINT('',(0.,0.,0.));
#492=CARTESIAN_POINT('Origin',(25.4,-25.4,25.4));
#493=CARTESIAN_POINT('',(23.8,2.9146593819707E-15,0.));
#494=CARTESIAN_POINT('',(-23.8,-2.62409243846574E-15,0.));
#495=CARTESIAN_POINT('Origin',(0.,0.,0.));
#496=CARTESIAN_POINT('',(25.4,3.11060286983428E-15,0.));
#497=CARTESIAN_POINT('',(12.7,2.96059473233375E-15,0.));
#498=CARTESIAN_POINT('',(-25.4,-2.81058659483322E-15,0.));
#499=CARTESIAN_POINT('Origin',(0.,0.,0.));
#500=CARTESIAN_POINT('',(12.7,2.96059473233375E-15,0.));
#501=CARTESIAN_POINT('Origin',(25.4,0.,-4.44089209850063E-15));
#502=CARTESIAN_POINT('Origin',(0.,0.,-1.48029736616687E-15));
#503=CARTESIAN_POINT('Origin',(0.,0.,-1.48029736616687E-15));
#504=CARTESIAN_POINT('Origin',(0.,0.,0.));
#505=CARTESIAN_POINT('',(23.8,2.9146593819707E-15,66.2));
#506=CARTESIAN_POINT('',(23.8,2.9146593819707E-15,0.));
#507=CARTESIAN_POINT('Origin',(0.,0.,66.2));
#508=CARTESIAN_POINT('Origin',(0.,0.,0.));
#509=CARTESIAN_POINT('',(25.4,3.11060286983428E-15,66.2));
#510=CARTESIAN_POINT('Origin',(0.,0.,66.2));
#511=CARTESIAN_POINT('',(25.4,3.11060286983428E-15,0.));
#512=CARTESIAN_POINT('Origin',(-2.59039386041303E-15,5.82794238648376E-16,
66.2));
#513=CARTESIAN_POINT('',(0.,0.,0.));
#514=CARTESIAN_POINT('Origin',(-37.5,0.,0.));
#515=CARTESIAN_POINT('',(-37.5,0.,0.));
#516=CARTESIAN_POINT('',(37.5,0.,-4.59242549680258E-15));
#517=CARTESIAN_POINT('Origin',(0.,0.,0.));
#518=CARTESIAN_POINT('Origin',(0.,0.,0.));
#519=CARTESIAN_POINT('',(-25.6,0.,0.));
#520=CARTESIAN_POINT('',(25.6,0.,-3.13509580581722E-15));
#521=CARTESIAN_POINT('Origin',(0.,0.,0.));
#522=CARTESIAN_POINT('Origin',(0.,0.,0.));
#523=CARTESIAN_POINT('Origin',(0.,1.5,0.));
#524=CARTESIAN_POINT('',(-37.5,3.,0.));
#525=CARTESIAN_POINT('',(37.5,3.,-4.59242549680258E-15));
#526=CARTESIAN_POINT('Origin',(0.,3.,0.));
#527=CARTESIAN_POINT('Origin',(0.,3.,0.));
#528=CARTESIAN_POINT('',(37.5,1.5,-4.59242549680258E-15));
#529=CARTESIAN_POINT('Origin',(0.,4.,0.));
#530=CARTESIAN_POINT('',(-30.0358983848622,5.,0.));
#531=CARTESIAN_POINT('',(30.0358983848622,5.,-3.67833668165366E-15));
#532=CARTESIAN_POINT('Origin',(0.,5.,0.));
#533=CARTESIAN_POINT('Origin',(0.,5.,0.));
#534=CARTESIAN_POINT('',(33.7679491924311,4.,-4.13538108922812E-15));
#535=CARTESIAN_POINT('Origin',(-25.5,5.,0.));
#536=CARTESIAN_POINT('',(-25.5,5.,0.));
#537=CARTESIAN_POINT('',(25.5,5.,-3.12284933782575E-15));
#538=CARTESIAN_POINT('Origin',(0.,5.,0.));
#539=CARTESIAN_POINT('Origin',(0.,5.,0.));
#540=CARTESIAN_POINT('Origin',(0.,4.4,0.));
#541=CARTESIAN_POINT('',(25.5,3.8,-3.12284933782575E-15));
#542=CARTESIAN_POINT('',(25.5,4.4,-3.12284933782575E-15));
#543=CARTESIAN_POINT('',(-25.5,3.8,0.));
#544=CARTESIAN_POINT('Origin',(0.,3.8,0.));
#545=CARTESIAN_POINT('Origin',(0.,3.8,0.));
#546=CARTESIAN_POINT('Origin',(-24.55,3.8,0.));
#547=CARTESIAN_POINT('',(-24.55,3.8,0.));
#548=CARTESIAN_POINT('',(24.55,3.8,-3.00650789190675E-15));
#549=CARTESIAN_POINT('Origin',(0.,3.8,0.));
#550=CARTESIAN_POINT('Origin',(0.,3.8,0.));
#551=CARTESIAN_POINT('Origin',(0.,3.15,0.));
#552=CARTESIAN_POINT('',(24.55,2.5,-3.00650789190675E-15));
#553=CARTESIAN_POINT('',(24.55,3.15,-3.00650789190675E-15));
#554=CARTESIAN_POINT('',(-24.55,2.5,0.));
#555=CARTESIAN_POINT('Origin',(0.,2.5,0.));
#556=CARTESIAN_POINT('Origin',(0.,2.5,0.));
#557=CARTESIAN_POINT('Origin',(-25.6,2.5,0.));
#558=CARTESIAN_POINT('',(-25.6,2.5,0.));
#559=CARTESIAN_POINT('',(25.6,2.5,-3.13509580581722E-15));
#560=CARTESIAN_POINT('Origin',(0.,2.5,0.));
#561=CARTESIAN_POINT('Origin',(0.,2.5,0.));
#562=CARTESIAN_POINT('Origin',(0.,1.25,0.));
#563=CARTESIAN_POINT('',(25.6,1.25,-3.13509580581722E-15));
#564=CARTESIAN_POINT('',(0.,0.,0.));
#565=CARTESIAN_POINT('',(-3.28429327576129E-47,9.86076131526265E-32,9.86076131526265E-32));
#566=CARTESIAN_POINT('',(-1.72541755297683E-32,1.48029736616687E-16,-1.48029736616687E-16));
#567=CARTESIAN_POINT('',(-1.72541755297684E-32,1.48029736616688E-16,3.94430452610506E-31));
#568=CARTESIAN_POINT('',(5.39878838782572E-30,-1.01770443923973E-14,-70.));
#569=CARTESIAN_POINT('',(-8.15911934107727E-15,70.0000000000001,5.29206308404659E-14));
#570=CARTESIAN_POINT('',(8.15911934107728E-15,-70.,-7.77156117237609E-15));
#571=CARTESIAN_POINT('',(1.17096540618744E-32,1.54074395550979E-32,70.));
#572=UNCERTAINTY_MEASURE_WITH_UNIT(LENGTH_MEASURE(0.01),#580,
'DISTANCE_ACCURACY_VALUE',
'Maximum model space distance between geometric entities at asserted c
onnectivities');
#573=UNCERTAINTY_MEASURE_WITH_UNIT(LENGTH_MEASURE(0.01),#580,
'DISTANCE_ACCURACY_VALUE',
'Maximum model space distance between geometric entities at asserted c
onnectivities');
#574=UNCERTAINTY_MEASURE_WITH_UNIT(LENGTH_MEASURE(0.01),#580,
'DISTANCE_ACCURACY_VALUE',
'Maximum model space distance between geometric entities at asserted c
onnectivities');
#575=UNCERTAINTY_MEASURE_WITH_UNIT(LENGTH_MEASURE(0.01),#580,
'DISTANCE_ACCURACY_VALUE',
'Maximum model space distance between geometric entities at asserted c
onnectivities');
#576=(
GEOMETRIC_REPRESENTATION_CONTEXT(3)
GLOBAL_UNCERTAINTY_ASSIGNED_CONTEXT((#572))
GLOBAL_UNIT_ASSIGNED_CONTEXT((#580,#582,#583))
REPRESENTATION_CONTEXT('','3D')
);
#577=(
GEOMETRIC_REPRESENTATION_CONTEXT(3)
GLOBAL_UNCERTAINTY_ASSIGNED_CONTEXT((#573))
GLOBAL_UNIT_ASSIGNED_CONTEXT((#580,#582,#583))
REPRESENTATION_CONTEXT('','3D')
);
#578=(
GEOMETRIC_REPRESENTATION_CONTEXT(3)
GLOBAL_UNCERTAINTY_ASSIGNED_CONTEXT((#574))
GLOBAL_UNIT_ASSIGNED_CONTEXT((#580,#582,#583))
REPRESENTATION_CONTEXT('','3D')
);
#579=(
GEOMETRIC_REPRESENTATION_CONTEXT(3)
GLOBAL_UNCERTAINTY_ASSIGNED_CONTEXT((#575))
GLOBAL_UNIT_ASSIGNED_CONTEXT((#580,#582,#583))
REPRESENTATION_CONTEXT('','3D')
);
#580=(
LENGTH_UNIT()
NAMED_UNIT(*)
SI_UNIT(.MILLI.,.METRE.)
);
#581=(
LENGTH_UNIT()
NAMED_UNIT(*)
SI_UNIT(.CENTI.,.METRE.)
);
#582=(
NAMED_UNIT(*)
PLANE_ANGLE_UNIT()
SI_UNIT($,.RADIAN.)
);
#583=(
NAMED_UNIT(*)
SI_UNIT($,.STERADIAN.)
SOLID_ANGLE_UNIT()
);
#584=SHAPE_DEFINITION_REPRESENTATION(#587,#598);
#585=SHAPE_DEFINITION_REPRESENTATION(#588,#599);
#586=SHAPE_DEFINITION_REPRESENTATION(#589,#600);
#587=PRODUCT_DEFINITION_SHAPE('',$,#602);
#588=PRODUCT_DEFINITION_SHAPE('',$,#603);
#589=PRODUCT_DEFINITION_SHAPE('',$,#604);
#590=PRODUCT_DEFINITION_SHAPE($,$,#35);
#591=PRODUCT_DEFINITION_SHAPE($,$,#36);
#592=PRODUCT_DEFINITION_SHAPE($,$,#37);
#593=PRODUCT_DEFINITION_SHAPE($,$,#38);
#594=PRODUCT_DEFINITION_SHAPE($,$,#39);
#595=PRODUCT_DEFINITION_SHAPE($,$,#40);
#596=PRODUCT_DEFINITION_SHAPE($,$,#41);
#597=PRODUCT_DEFINITION_SHAPE($,$,#42);
#598=SHAPE_REPRESENTATION('',(#334,#375,#376,#377,#378,#379,#380,#381,#382),
#576);
#599=SHAPE_REPRESENTATION('',(#335),#577);
#600=SHAPE_REPRESENTATION('',(#347),#578);
#601=PRODUCT_DEFINITION_CONTEXT('part definition',#612,'design');
#602=PRODUCT_DEFINITION('FL-4X25KF','FL-4X50KF',#605,#601);
#603=PRODUCT_DEFINITION('Tube','Tube',#606,#601);
#604=PRODUCT_DEFINITION('FL-50KF-51W','FL-50KF-51W',#607,#601);
#605=PRODUCT_DEFINITION_FORMATION('',$,#614);
#606=PRODUCT_DEFINITION_FORMATION('',$,#615);
#607=PRODUCT_DEFINITION_FORMATION('',$,#616);
#608=PRODUCT_RELATED_PRODUCT_CATEGORY('FL-4X50KF','FL-4X50KF',(#614));
#609=PRODUCT_RELATED_PRODUCT_CATEGORY('Tube','Tube',(#615));
#610=PRODUCT_RELATED_PRODUCT_CATEGORY('FL-50KF-51W','FL-50KF-51W',(#616));
#611=APPLICATION_PROTOCOL_DEFINITION('international standard',
'automotive_design',2009,#612);
#612=APPLICATION_CONTEXT(
'Core Data for Automotive Mechanical Design Process');
#613=PRODUCT_CONTEXT('part definition',#612,'mechanical');
#614=PRODUCT('FL-4X25KF','FL-4X50KF',$,(#613));
#615=PRODUCT('Tube','Tube',$,(#613));
#616=PRODUCT('FL-50KF-51W','FL-50KF-51W',$,(#613));
ENDSEC;
END-ISO-10303-21;
