ISO-10303-21;
HEADER;
/* Generated by software containing ST-Developer
 * from STEP Tools, Inc. (www.steptools.com) 
 */

FILE_DESCRIPTION(
/* description */ (''),
/* implementation_level */ '2;1');

FILE_NAME(
/* name */ 
'G:\\FLANGES & FITTINGS\\Crosses KF 4 way\\DN25KF\\Step files\\FL-4X25
KF.stp',
/* time_stamp */ '2018-07-09T09:10:03+01:00',
/* author */ ('paul'),
/* organization */ (''),
/* preprocessor_version */ 'ST-DEVELOPER v17',
/* originating_system */ 'Autodesk Inventor 2019',
/* authorisation */ '');

FILE_SCHEMA (('AUTOMOTIVE_DESIGN { 1 0 10303 214 3 1 1 }'));
ENDSEC;

DATA;
#10=MECHANICAL_DESIGN_GEOMETRIC_PRESENTATION_REPRESENTATION('',(#48,#49),
#547);
#11=ITEM_DEFINED_TRANSFORMATION($,$,#317,#354);
#12=ITEM_DEFINED_TRANSFORMATION($,$,#317,#355);
#13=ITEM_DEFINED_TRANSFORMATION($,$,#317,#356);
#14=ITEM_DEFINED_TRANSFORMATION($,$,#317,#357);
#15=ITEM_DEFINED_TRANSFORMATION($,$,#329,#358);
#16=ITEM_DEFINED_TRANSFORMATION($,$,#329,#359);
#17=ITEM_DEFINED_TRANSFORMATION($,$,#329,#360);
#18=ITEM_DEFINED_TRANSFORMATION($,$,#329,#361);
#19=(
REPRESENTATION_RELATIONSHIP($,$,#567,#566)
REPRESENTATION_RELATIONSHIP_WITH_TRANSFORMATION(#11)
SHAPE_REPRESENTATION_RELATIONSHIP()
);
#20=(
REPRESENTATION_RELATIONSHIP($,$,#567,#566)
REPRESENTATION_RELATIONSHIP_WITH_TRANSFORMATION(#12)
SHAPE_REPRESENTATION_RELATIONSHIP()
);
#21=(
REPRESENTATION_RELATIONSHIP($,$,#567,#566)
REPRESENTATION_RELATIONSHIP_WITH_TRANSFORMATION(#13)
SHAPE_REPRESENTATION_RELATIONSHIP()
);
#22=(
REPRESENTATION_RELATIONSHIP($,$,#567,#566)
REPRESENTATION_RELATIONSHIP_WITH_TRANSFORMATION(#14)
SHAPE_REPRESENTATION_RELATIONSHIP()
);
#23=(
REPRESENTATION_RELATIONSHIP($,$,#568,#566)
REPRESENTATION_RELATIONSHIP_WITH_TRANSFORMATION(#15)
SHAPE_REPRESENTATION_RELATIONSHIP()
);
#24=(
REPRESENTATION_RELATIONSHIP($,$,#568,#566)
REPRESENTATION_RELATIONSHIP_WITH_TRANSFORMATION(#16)
SHAPE_REPRESENTATION_RELATIONSHIP()
);
#25=(
REPRESENTATION_RELATIONSHIP($,$,#568,#566)
REPRESENTATION_RELATIONSHIP_WITH_TRANSFORMATION(#17)
SHAPE_REPRESENTATION_RELATIONSHIP()
);
#26=(
REPRESENTATION_RELATIONSHIP($,$,#568,#566)
REPRESENTATION_RELATIONSHIP_WITH_TRANSFORMATION(#18)
SHAPE_REPRESENTATION_RELATIONSHIP()
);
#27=CONTEXT_DEPENDENT_SHAPE_REPRESENTATION(#19,#558);
#28=CONTEXT_DEPENDENT_SHAPE_REPRESENTATION(#20,#559);
#29=CONTEXT_DEPENDENT_SHAPE_REPRESENTATION(#21,#560);
#30=CONTEXT_DEPENDENT_SHAPE_REPRESENTATION(#22,#561);
#31=CONTEXT_DEPENDENT_SHAPE_REPRESENTATION(#23,#562);
#32=CONTEXT_DEPENDENT_SHAPE_REPRESENTATION(#24,#563);
#33=CONTEXT_DEPENDENT_SHAPE_REPRESENTATION(#25,#564);
#34=CONTEXT_DEPENDENT_SHAPE_REPRESENTATION(#26,#565);
#35=NEXT_ASSEMBLY_USAGE_OCCURRENCE('Tube:1','Tube:1','Tube:1',#570,#571,
'Tube:1');
#36=NEXT_ASSEMBLY_USAGE_OCCURRENCE('Tube:2','Tube:2','Tube:2',#570,#571,
'Tube:2');
#37=NEXT_ASSEMBLY_USAGE_OCCURRENCE('Tube:3','Tube:3','Tube:3',#570,#571,
'Tube:3');
#38=NEXT_ASSEMBLY_USAGE_OCCURRENCE('Tube:4','Tube:4','Tube:4',#570,#571,
'Tube:4');
#39=NEXT_ASSEMBLY_USAGE_OCCURRENCE('FL-25KF-25W:1','FL-25KF-25W:1',
'FL-25KF-25W:1',#570,#572,'FL-25KF-25W:1');
#40=NEXT_ASSEMBLY_USAGE_OCCURRENCE('FL-25KF-25W:2','FL-25KF-25W:2',
'FL-25KF-25W:2',#570,#572,'FL-25KF-25W:2');
#41=NEXT_ASSEMBLY_USAGE_OCCURRENCE('FL-25KF-25W:3','FL-25KF-25W:3',
'FL-25KF-25W:3',#570,#572,'FL-25KF-25W:3');
#42=NEXT_ASSEMBLY_USAGE_OCCURRENCE('FL-25KF-25W:4','FL-25KF-25W:4',
'FL-25KF-25W:4',#570,#572,'FL-25KF-25W:4');
#43=CONICAL_SURFACE('',#335,16.425,1.30899693899575);
#44=SHAPE_REPRESENTATION_RELATIONSHIP('SRR','None',#567,#46);
#45=SHAPE_REPRESENTATION_RELATIONSHIP('SRR','None',#568,#47);
#46=ADVANCED_BREP_SHAPE_REPRESENTATION('',(#50),#545);
#47=ADVANCED_BREP_SHAPE_REPRESENTATION('',(#51),#546);
#48=STYLED_ITEM('',(#291),#50);
#49=STYLED_ITEM('',(#291),#51);
#50=MANIFOLD_SOLID_BREP('Solid1',#266);
#51=MANIFOLD_SOLID_BREP('Solid1',#267);
#52=FACE_BOUND('',#98,.T.);
#53=FACE_BOUND('',#103,.T.);
#54=FACE_BOUND('',#106,.T.);
#55=FACE_BOUND('',#109,.T.);
#56=CIRCLE('',#325,11.);
#57=CIRCLE('',#327,12.7);
#58=CIRCLE('',#331,20.);
#59=CIRCLE('',#332,20.);
#60=CIRCLE('',#333,20.);
#61=CIRCLE('',#334,20.);
#62=CIRCLE('',#336,12.85);
#63=CIRCLE('',#337,12.85);
#64=CIRCLE('',#339,12.85);
#65=CIRCLE('',#340,12.85);
#66=CIRCLE('',#342,11.875);
#67=CIRCLE('',#343,11.875);
#68=CIRCLE('',#345,11.875);
#69=CIRCLE('',#346,11.875);
#70=CIRCLE('',#348,13.1);
#71=CIRCLE('',#349,13.1);
#72=CIRCLE('',#351,13.1);
#73=CIRCLE('',#352,13.1);
#74=CYLINDRICAL_SURFACE('',#324,11.);
#75=CYLINDRICAL_SURFACE('',#326,12.7);
#76=CYLINDRICAL_SURFACE('',#330,20.);
#77=CYLINDRICAL_SURFACE('',#338,12.85);
#78=CYLINDRICAL_SURFACE('',#344,11.875);
#79=CYLINDRICAL_SURFACE('',#350,13.1);
#80=FACE_OUTER_BOUND('',#93,.T.);
#81=FACE_OUTER_BOUND('',#94,.T.);
#82=FACE_OUTER_BOUND('',#95,.T.);
#83=FACE_OUTER_BOUND('',#96,.T.);
#84=FACE_OUTER_BOUND('',#97,.T.);
#85=FACE_OUTER_BOUND('',#99,.T.);
#86=FACE_OUTER_BOUND('',#100,.T.);
#87=FACE_OUTER_BOUND('',#101,.T.);
#88=FACE_OUTER_BOUND('',#102,.T.);
#89=FACE_OUTER_BOUND('',#104,.T.);
#90=FACE_OUTER_BOUND('',#105,.T.);
#91=FACE_OUTER_BOUND('',#107,.T.);
#92=FACE_OUTER_BOUND('',#108,.T.);
#93=EDGE_LOOP('',(#185,#186,#187,#188));
#94=EDGE_LOOP('',(#189,#190,#191,#192));
#95=EDGE_LOOP('',(#193,#194,#195,#196,#197));
#96=EDGE_LOOP('',(#198,#199,#200,#201,#202));
#97=EDGE_LOOP('',(#203));
#98=EDGE_LOOP('',(#204));
#99=EDGE_LOOP('',(#205,#206,#207,#208,#209,#210));
#100=EDGE_LOOP('',(#211,#212,#213,#214,#215,#216));
#101=EDGE_LOOP('',(#217,#218,#219,#220,#221,#222));
#102=EDGE_LOOP('',(#223,#224));
#103=EDGE_LOOP('',(#225,#226));
#104=EDGE_LOOP('',(#227,#228,#229,#230,#231,#232));
#105=EDGE_LOOP('',(#233,#234));
#106=EDGE_LOOP('',(#235,#236));
#107=EDGE_LOOP('',(#237,#238,#239,#240,#241,#242));
#108=EDGE_LOOP('',(#243,#244));
#109=EDGE_LOOP('',(#245,#246));
#110=LINE('',#470,#119);
#111=LINE('',#473,#120);
#112=LINE('',#479,#121);
#113=LINE('',#484,#122);
#114=LINE('',#493,#123);
#115=LINE('',#502,#124);
#116=LINE('',#505,#125);
#117=LINE('',#516,#126);
#118=LINE('',#527,#127);
#119=VECTOR('',#370,10.);
#120=VECTOR('',#373,10.);
#121=VECTOR('',#382,11.);
#122=VECTOR('',#389,12.7);
#123=VECTOR('',#400,20.);
#124=VECTOR('',#411,16.425);
#125=VECTOR('',#414,12.85);
#126=VECTOR('',#427,11.875);
#127=VECTOR('',#440,13.1);
#128=ELLIPSE('',#319,15.556349186104,11.);
#129=ELLIPSE('',#320,17.9605122421383,12.7);
#130=ELLIPSE('',#322,15.556349186104,11.);
#131=ELLIPSE('',#323,17.9605122421383,12.7);
#132=VERTEX_POINT('',#466);
#133=VERTEX_POINT('',#467);
#134=VERTEX_POINT('',#469);
#135=VERTEX_POINT('',#471);
#136=VERTEX_POINT('',#478);
#137=VERTEX_POINT('',#482);
#138=VERTEX_POINT('',#488);
#139=VERTEX_POINT('',#489);
#140=VERTEX_POINT('',#492);
#141=VERTEX_POINT('',#494);
#142=VERTEX_POINT('',#498);
#143=VERTEX_POINT('',#499);
#144=VERTEX_POINT('',#504);
#145=VERTEX_POINT('',#506);
#146=VERTEX_POINT('',#510);
#147=VERTEX_POINT('',#511);
#148=VERTEX_POINT('',#515);
#149=VERTEX_POINT('',#517);
#150=VERTEX_POINT('',#521);
#151=VERTEX_POINT('',#522);
#152=VERTEX_POINT('',#526);
#153=VERTEX_POINT('',#528);
#154=EDGE_CURVE('',#132,#133,#128,.T.);
#155=EDGE_CURVE('',#132,#134,#110,.T.);
#156=EDGE_CURVE('',#135,#134,#129,.T.);
#157=EDGE_CURVE('',#135,#133,#111,.T.);
#158=EDGE_CURVE('',#133,#132,#130,.T.);
#159=EDGE_CURVE('',#134,#135,#131,.T.);
#160=EDGE_CURVE('',#132,#136,#112,.T.);
#161=EDGE_CURVE('',#136,#136,#56,.T.);
#162=EDGE_CURVE('',#137,#137,#57,.T.);
#163=EDGE_CURVE('',#137,#134,#113,.T.);
#164=EDGE_CURVE('',#138,#139,#58,.T.);
#165=EDGE_CURVE('',#139,#138,#59,.T.);
#166=EDGE_CURVE('',#139,#140,#114,.T.);
#167=EDGE_CURVE('',#140,#141,#60,.T.);
#168=EDGE_CURVE('',#141,#140,#61,.T.);
#169=EDGE_CURVE('',#142,#143,#62,.T.);
#170=EDGE_CURVE('',#143,#142,#63,.T.);
#171=EDGE_CURVE('',#143,#139,#115,.T.);
#172=EDGE_CURVE('',#143,#144,#116,.T.);
#173=EDGE_CURVE('',#145,#144,#64,.T.);
#174=EDGE_CURVE('',#144,#145,#65,.T.);
#175=EDGE_CURVE('',#146,#147,#66,.T.);
#176=EDGE_CURVE('',#147,#146,#67,.T.);
#177=EDGE_CURVE('',#147,#148,#117,.T.);
#178=EDGE_CURVE('',#149,#148,#68,.T.);
#179=EDGE_CURVE('',#148,#149,#69,.T.);
#180=EDGE_CURVE('',#150,#151,#70,.T.);
#181=EDGE_CURVE('',#151,#150,#71,.T.);
#182=EDGE_CURVE('',#151,#152,#118,.T.);
#183=EDGE_CURVE('',#153,#152,#72,.T.);
#184=EDGE_CURVE('',#152,#153,#73,.T.);
#185=ORIENTED_EDGE('',*,*,#154,.F.);
#186=ORIENTED_EDGE('',*,*,#155,.T.);
#187=ORIENTED_EDGE('',*,*,#156,.F.);
#188=ORIENTED_EDGE('',*,*,#157,.T.);
#189=ORIENTED_EDGE('',*,*,#158,.F.);
#190=ORIENTED_EDGE('',*,*,#157,.F.);
#191=ORIENTED_EDGE('',*,*,#159,.F.);
#192=ORIENTED_EDGE('',*,*,#155,.F.);
#193=ORIENTED_EDGE('',*,*,#154,.T.);
#194=ORIENTED_EDGE('',*,*,#158,.T.);
#195=ORIENTED_EDGE('',*,*,#160,.T.);
#196=ORIENTED_EDGE('',*,*,#161,.F.);
#197=ORIENTED_EDGE('',*,*,#160,.F.);
#198=ORIENTED_EDGE('',*,*,#162,.F.);
#199=ORIENTED_EDGE('',*,*,#163,.T.);
#200=ORIENTED_EDGE('',*,*,#159,.T.);
#201=ORIENTED_EDGE('',*,*,#156,.T.);
#202=ORIENTED_EDGE('',*,*,#163,.F.);
#203=ORIENTED_EDGE('',*,*,#162,.T.);
#204=ORIENTED_EDGE('',*,*,#161,.T.);
#205=ORIENTED_EDGE('',*,*,#164,.F.);
#206=ORIENTED_EDGE('',*,*,#165,.F.);
#207=ORIENTED_EDGE('',*,*,#166,.T.);
#208=ORIENTED_EDGE('',*,*,#167,.T.);
#209=ORIENTED_EDGE('',*,*,#168,.T.);
#210=ORIENTED_EDGE('',*,*,#166,.F.);
#211=ORIENTED_EDGE('',*,*,#169,.F.);
#212=ORIENTED_EDGE('',*,*,#170,.F.);
#213=ORIENTED_EDGE('',*,*,#171,.T.);
#214=ORIENTED_EDGE('',*,*,#165,.T.);
#215=ORIENTED_EDGE('',*,*,#164,.T.);
#216=ORIENTED_EDGE('',*,*,#171,.F.);
#217=ORIENTED_EDGE('',*,*,#169,.T.);
#218=ORIENTED_EDGE('',*,*,#172,.T.);
#219=ORIENTED_EDGE('',*,*,#173,.F.);
#220=ORIENTED_EDGE('',*,*,#174,.F.);
#221=ORIENTED_EDGE('',*,*,#172,.F.);
#222=ORIENTED_EDGE('',*,*,#170,.T.);
#223=ORIENTED_EDGE('',*,*,#173,.T.);
#224=ORIENTED_EDGE('',*,*,#174,.T.);
#225=ORIENTED_EDGE('',*,*,#175,.F.);
#226=ORIENTED_EDGE('',*,*,#176,.F.);
#227=ORIENTED_EDGE('',*,*,#175,.T.);
#228=ORIENTED_EDGE('',*,*,#177,.T.);
#229=ORIENTED_EDGE('',*,*,#178,.F.);
#230=ORIENTED_EDGE('',*,*,#179,.F.);
#231=ORIENTED_EDGE('',*,*,#177,.F.);
#232=ORIENTED_EDGE('',*,*,#176,.T.);
#233=ORIENTED_EDGE('',*,*,#180,.F.);
#234=ORIENTED_EDGE('',*,*,#181,.F.);
#235=ORIENTED_EDGE('',*,*,#178,.T.);
#236=ORIENTED_EDGE('',*,*,#179,.T.);
#237=ORIENTED_EDGE('',*,*,#180,.T.);
#238=ORIENTED_EDGE('',*,*,#182,.T.);
#239=ORIENTED_EDGE('',*,*,#183,.F.);
#240=ORIENTED_EDGE('',*,*,#184,.F.);
#241=ORIENTED_EDGE('',*,*,#182,.F.);
#242=ORIENTED_EDGE('',*,*,#181,.T.);
#243=ORIENTED_EDGE('',*,*,#168,.F.);
#244=ORIENTED_EDGE('',*,*,#167,.F.);
#245=ORIENTED_EDGE('',*,*,#183,.T.);
#246=ORIENTED_EDGE('',*,*,#184,.T.);
#247=PLANE('',#318);
#248=PLANE('',#321);
#249=PLANE('',#328);
#250=PLANE('',#341);
#251=PLANE('',#347);
#252=PLANE('',#353);
#253=ADVANCED_FACE('',(#80),#247,.F.);
#254=ADVANCED_FACE('',(#81),#248,.F.);
#255=ADVANCED_FACE('',(#82),#74,.F.);
#256=ADVANCED_FACE('',(#83),#75,.T.);
#257=ADVANCED_FACE('',(#84,#52),#249,.T.);
#258=ADVANCED_FACE('',(#85),#76,.T.);
#259=ADVANCED_FACE('',(#86),#43,.T.);
#260=ADVANCED_FACE('',(#87),#77,.F.);
#261=ADVANCED_FACE('',(#88,#53),#250,.T.);
#262=ADVANCED_FACE('',(#89),#78,.F.);
#263=ADVANCED_FACE('',(#90,#54),#251,.T.);
#264=ADVANCED_FACE('',(#91),#79,.F.);
#265=ADVANCED_FACE('',(#92,#55),#252,.T.);
#266=CLOSED_SHELL('',(#253,#254,#255,#256,#257));
#267=CLOSED_SHELL('',(#258,#259,#260,#261,#262,#263,#264,#265));
#268=DERIVED_UNIT_ELEMENT(#272,1.);
#269=DERIVED_UNIT_ELEMENT(#549,3.);
#270=DERIVED_UNIT_ELEMENT(#272,1.);
#271=DERIVED_UNIT_ELEMENT(#549,3.);
#272=(
MASS_UNIT()
NAMED_UNIT(*)
SI_UNIT($,.GRAM.)
);
#273=DERIVED_UNIT((#268,#269));
#274=DERIVED_UNIT((#270,#271));
#275=MEASURE_REPRESENTATION_ITEM('density measure',
POSITIVE_RATIO_MEASURE(8.),#273);
#276=MEASURE_REPRESENTATION_ITEM('density measure',
POSITIVE_RATIO_MEASURE(8.),#274);
#277=PROPERTY_DEFINITION_REPRESENTATION(#287,#281);
#278=PROPERTY_DEFINITION_REPRESENTATION(#288,#282);
#279=PROPERTY_DEFINITION_REPRESENTATION(#289,#283);
#280=PROPERTY_DEFINITION_REPRESENTATION(#290,#284);
#281=REPRESENTATION('material name',(#285),#545);
#282=REPRESENTATION('density',(#275),#545);
#283=REPRESENTATION('material name',(#286),#546);
#284=REPRESENTATION('density',(#276),#546);
#285=DESCRIPTIVE_REPRESENTATION_ITEM('Stainless Steel AISI 304',
'Stainless Steel AISI 304');
#286=DESCRIPTIVE_REPRESENTATION_ITEM('Stainless Steel AISI 304',
'Stainless Steel AISI 304');
#287=PROPERTY_DEFINITION('material property','material name',#571);
#288=PROPERTY_DEFINITION('material property','density of part',#571);
#289=PROPERTY_DEFINITION('material property','material name',#572);
#290=PROPERTY_DEFINITION('material property','density of part',#572);
#291=PRESENTATION_STYLE_ASSIGNMENT((#292));
#292=SURFACE_STYLE_USAGE(.BOTH.,#293);
#293=SURFACE_SIDE_STYLE('',(#294));
#294=SURFACE_STYLE_FILL_AREA(#295);
#295=FILL_AREA_STYLE('',(#296));
#296=FILL_AREA_STYLE_COLOUR('',#297);
#297=COLOUR_RGB('',0.745098039215686,0.737254901960784,0.729411764705882);
#298=DATE_TIME_ROLE('creation_date');
#299=DATE_TIME_ROLE('creation_date');
#300=DATE_TIME_ROLE('creation_date');
#301=APPLIED_DATE_AND_TIME_ASSIGNMENT(#304,#298,(#570));
#302=APPLIED_DATE_AND_TIME_ASSIGNMENT(#305,#299,(#571));
#303=APPLIED_DATE_AND_TIME_ASSIGNMENT(#306,#300,(#572));
#304=DATE_AND_TIME(#307,#310);
#305=DATE_AND_TIME(#308,#311);
#306=DATE_AND_TIME(#309,#312);
#307=CALENDAR_DATE(2018,9,7);
#308=CALENDAR_DATE(2018,9,7);
#309=CALENDAR_DATE(2014,18,11);
#310=LOCAL_TIME(9,3,33.,#313);
#311=LOCAL_TIME(8,59,55.,#314);
#312=LOCAL_TIME(10,34,47.,#315);
#313=COORDINATED_UNIVERSAL_TIME_OFFSET(0,0,.BEHIND.);
#314=COORDINATED_UNIVERSAL_TIME_OFFSET(0,0,.BEHIND.);
#315=COORDINATED_UNIVERSAL_TIME_OFFSET(0,0,.BEHIND.);
#316=AXIS2_PLACEMENT_3D('placement',#463,#362,#363);
#317=AXIS2_PLACEMENT_3D('placement',#464,#364,#365);
#318=AXIS2_PLACEMENT_3D('',#465,#366,#367);
#319=AXIS2_PLACEMENT_3D('',#468,#368,#369);
#320=AXIS2_PLACEMENT_3D('',#472,#371,#372);
#321=AXIS2_PLACEMENT_3D('',#474,#374,#375);
#322=AXIS2_PLACEMENT_3D('',#475,#376,#377);
#323=AXIS2_PLACEMENT_3D('',#476,#378,#379);
#324=AXIS2_PLACEMENT_3D('',#477,#380,#381);
#325=AXIS2_PLACEMENT_3D('',#480,#383,#384);
#326=AXIS2_PLACEMENT_3D('',#481,#385,#386);
#327=AXIS2_PLACEMENT_3D('',#483,#387,#388);
#328=AXIS2_PLACEMENT_3D('',#485,#390,#391);
#329=AXIS2_PLACEMENT_3D('placement',#486,#392,#393);
#330=AXIS2_PLACEMENT_3D('',#487,#394,#395);
#331=AXIS2_PLACEMENT_3D('',#490,#396,#397);
#332=AXIS2_PLACEMENT_3D('',#491,#398,#399);
#333=AXIS2_PLACEMENT_3D('',#495,#401,#402);
#334=AXIS2_PLACEMENT_3D('',#496,#403,#404);
#335=AXIS2_PLACEMENT_3D('',#497,#405,#406);
#336=AXIS2_PLACEMENT_3D('',#500,#407,#408);
#337=AXIS2_PLACEMENT_3D('',#501,#409,#410);
#338=AXIS2_PLACEMENT_3D('',#503,#412,#413);
#339=AXIS2_PLACEMENT_3D('',#507,#415,#416);
#340=AXIS2_PLACEMENT_3D('',#508,#417,#418);
#341=AXIS2_PLACEMENT_3D('',#509,#419,#420);
#342=AXIS2_PLACEMENT_3D('',#512,#421,#422);
#343=AXIS2_PLACEMENT_3D('',#513,#423,#424);
#344=AXIS2_PLACEMENT_3D('',#514,#425,#426);
#345=AXIS2_PLACEMENT_3D('',#518,#428,#429);
#346=AXIS2_PLACEMENT_3D('',#519,#430,#431);
#347=AXIS2_PLACEMENT_3D('',#520,#432,#433);
#348=AXIS2_PLACEMENT_3D('',#523,#434,#435);
#349=AXIS2_PLACEMENT_3D('',#524,#436,#437);
#350=AXIS2_PLACEMENT_3D('',#525,#438,#439);
#351=AXIS2_PLACEMENT_3D('',#529,#441,#442);
#352=AXIS2_PLACEMENT_3D('',#530,#443,#444);
#353=AXIS2_PLACEMENT_3D('',#531,#445,#446);
#354=AXIS2_PLACEMENT_3D('',#532,#447,#448);
#355=AXIS2_PLACEMENT_3D('',#533,#449,#450);
#356=AXIS2_PLACEMENT_3D('',#534,#451,#452);
#357=AXIS2_PLACEMENT_3D('',#535,#453,#454);
#358=AXIS2_PLACEMENT_3D('',#536,#455,#456);
#359=AXIS2_PLACEMENT_3D('',#537,#457,#458);
#360=AXIS2_PLACEMENT_3D('',#538,#459,#460);
#361=AXIS2_PLACEMENT_3D('',#539,#461,#462);
#362=DIRECTION('axis',(0.,0.,1.));
#363=DIRECTION('refdir',(1.,0.,0.));
#364=DIRECTION('axis',(0.,0.,1.));
#365=DIRECTION('refdir',(1.,0.,0.));
#366=DIRECTION('center_axis',(-8.24195516369436E-17,0.707106781186548,0.707106781186547));
#367=DIRECTION('ref_axis',(-8.65956056235493E-17,0.707106781186547,-0.707106781186548));
#368=DIRECTION('center_axis',(8.24195516369436E-17,-0.707106781186548,-0.707106781186547));
#369=DIRECTION('ref_axis',(0.,-0.707106781186547,0.707106781186548));
#370=DIRECTION('',(1.,1.16558847729675E-16,0.));
#371=DIRECTION('center_axis',(-8.24195516369436E-17,0.707106781186548,0.707106781186547));
#372=DIRECTION('ref_axis',(0.,-0.707106781186547,0.707106781186548));
#373=DIRECTION('',(1.,1.16558847729675E-16,0.));
#374=DIRECTION('center_axis',(8.24195516369436E-17,-0.707106781186548,0.707106781186548));
#375=DIRECTION('ref_axis',(-8.65956056235493E-17,0.707106781186548,0.707106781186548));
#376=DIRECTION('center_axis',(-8.24195516369436E-17,0.707106781186548,-0.707106781186548));
#377=DIRECTION('ref_axis',(0.,-0.707106781186548,-0.707106781186548));
#378=DIRECTION('center_axis',(8.24195516369436E-17,-0.707106781186548,0.707106781186548));
#379=DIRECTION('ref_axis',(0.,-0.707106781186547,-0.707106781186547));
#380=DIRECTION('center_axis',(0.,0.,1.));
#381=DIRECTION('ref_axis',(-1.,0.,0.));
#382=DIRECTION('',(0.,0.,1.));
#383=DIRECTION('center_axis',(0.,0.,-1.));
#384=DIRECTION('ref_axis',(-1.,0.,0.));
#385=DIRECTION('center_axis',(0.,0.,1.));
#386=DIRECTION('ref_axis',(-1.,0.,0.));
#387=DIRECTION('center_axis',(0.,0.,1.));
#388=DIRECTION('ref_axis',(-1.,0.,0.));
#389=DIRECTION('',(0.,0.,-1.));
#390=DIRECTION('center_axis',(0.,0.,1.));
#391=DIRECTION('ref_axis',(1.,0.,0.));
#392=DIRECTION('axis',(0.,0.,1.));
#393=DIRECTION('refdir',(1.,0.,0.));
#394=DIRECTION('center_axis',(0.,1.,0.));
#395=DIRECTION('ref_axis',(-1.,0.,0.));
#396=DIRECTION('center_axis',(0.,1.,0.));
#397=DIRECTION('ref_axis',(1.,0.,0.));
#398=DIRECTION('center_axis',(0.,1.,0.));
#399=DIRECTION('ref_axis',(1.,0.,0.));
#400=DIRECTION('',(0.,-1.,0.));
#401=DIRECTION('center_axis',(0.,1.,0.));
#402=DIRECTION('ref_axis',(1.,0.,0.));
#403=DIRECTION('center_axis',(0.,1.,0.));
#404=DIRECTION('ref_axis',(1.,0.,0.));
#405=DIRECTION('center_axis',(0.,-1.,0.));
#406=DIRECTION('ref_axis',(-1.,0.,0.));
#407=DIRECTION('center_axis',(0.,1.,0.));
#408=DIRECTION('ref_axis',(1.,0.,0.));
#409=DIRECTION('center_axis',(0.,1.,0.));
#410=DIRECTION('ref_axis',(1.,0.,0.));
#411=DIRECTION('',(0.965925826289068,-0.258819045102521,-1.18291797137867E-16));
#412=DIRECTION('center_axis',(0.,1.,0.));
#413=DIRECTION('ref_axis',(-1.,0.,0.));
#414=DIRECTION('',(0.,-1.,0.));
#415=DIRECTION('center_axis',(0.,1.,0.));
#416=DIRECTION('ref_axis',(1.,0.,0.));
#417=DIRECTION('center_axis',(0.,1.,0.));
#418=DIRECTION('ref_axis',(1.,0.,0.));
#419=DIRECTION('center_axis',(0.,1.,0.));
#420=DIRECTION('ref_axis',(0.,0.,1.));
#421=DIRECTION('center_axis',(0.,1.,0.));
#422=DIRECTION('ref_axis',(1.,0.,0.));
#423=DIRECTION('center_axis',(0.,1.,0.));
#424=DIRECTION('ref_axis',(1.,0.,0.));
#425=DIRECTION('center_axis',(0.,1.,0.));
#426=DIRECTION('ref_axis',(-1.,0.,0.));
#427=DIRECTION('',(0.,-1.,0.));
#428=DIRECTION('center_axis',(0.,1.,0.));
#429=DIRECTION('ref_axis',(1.,0.,0.));
#430=DIRECTION('center_axis',(0.,1.,0.));
#431=DIRECTION('ref_axis',(1.,0.,0.));
#432=DIRECTION('center_axis',(0.,-1.,0.));
#433=DIRECTION('ref_axis',(0.,0.,-1.));
#434=DIRECTION('center_axis',(0.,1.,0.));
#435=DIRECTION('ref_axis',(1.,0.,0.));
#436=DIRECTION('center_axis',(0.,1.,0.));
#437=DIRECTION('ref_axis',(1.,0.,0.));
#438=DIRECTION('center_axis',(0.,1.,0.));
#439=DIRECTION('ref_axis',(-1.,0.,0.));
#440=DIRECTION('',(0.,-1.,0.));
#441=DIRECTION('center_axis',(0.,1.,0.));
#442=DIRECTION('ref_axis',(1.,0.,0.));
#443=DIRECTION('center_axis',(0.,1.,0.));
#444=DIRECTION('ref_axis',(1.,0.,0.));
#445=DIRECTION('center_axis',(0.,-1.,0.));
#446=DIRECTION('ref_axis',(0.,0.,-1.));
#447=DIRECTION('',(0.,0.,1.));
#448=DIRECTION('',(1.,0.,0.));
#449=DIRECTION('',(1.16558847729675E-16,-1.,2.22044604925031E-16));
#450=DIRECTION('',(-1.,-1.16558847729675E-16,1.16558847729675E-16));
#451=DIRECTION('',(-1.16558847729675E-16,1.,-4.32668320882732E-31));
#452=DIRECTION('',(-1.,-1.16558847729675E-16,-1.16558847729675E-16));
#453=DIRECTION('',(1.40502908110845E-31,-6.66133814775094E-16,-1.));
#454=DIRECTION('',(-1.,-2.33117695459351E-16,1.47846716570703E-32));
#455=DIRECTION('',(-1.16558847729675E-16,1.,-3.33066907387547E-16));
#456=DIRECTION('',(-1.,-1.16558847729675E-16,-1.41699916538223E-32));
#457=DIRECTION('',(-2.59459664528892E-31,1.11022302462516E-16,1.));
#458=DIRECTION('',(-1.,-1.16558847729675E-16,-2.46519032881566E-31));
#459=DIRECTION('',(1.41699916538223E-32,-3.33066907387547E-16,-1.));
#460=DIRECTION('',(-1.,-1.16558847729675E-16,2.46519032881566E-32));
#461=DIRECTION('',(-1.16558847729675E-16,1.,0.));
#462=DIRECTION('',(1.,1.16558847729675E-16,0.));
#463=CARTESIAN_POINT('',(0.,0.,0.));
#464=CARTESIAN_POINT('',(0.,0.,0.));
#465=CARTESIAN_POINT('Origin',(12.7,-12.7,12.7));
#466=CARTESIAN_POINT('',(11.,1.34711147906209E-15,0.));
#467=CARTESIAN_POINT('',(-11.,-1.20714325627616E-15,0.));
#468=CARTESIAN_POINT('Origin',(0.,0.,0.));
#469=CARTESIAN_POINT('',(12.7,1.55530143491714E-15,0.));
#470=CARTESIAN_POINT('',(6.35,1.48029736616688E-15,-2.46519032881566E-31));
#471=CARTESIAN_POINT('',(-12.7,-1.40529329741661E-15,0.));
#472=CARTESIAN_POINT('Origin',(0.,0.,0.));
#473=CARTESIAN_POINT('',(6.35,1.48029736616688E-15,-2.46519032881566E-31));
#474=CARTESIAN_POINT('Origin',(12.7,0.,-2.22044604925031E-15));
#475=CARTESIAN_POINT('Origin',(0.,0.,-7.40148683083438E-16));
#476=CARTESIAN_POINT('Origin',(0.,0.,-7.40148683083438E-16));
#477=CARTESIAN_POINT('Origin',(0.,0.,0.));
#478=CARTESIAN_POINT('',(11.,1.34711147906209E-15,46.244));
#479=CARTESIAN_POINT('',(11.,1.34711147906209E-15,0.));
#480=CARTESIAN_POINT('Origin',(0.,0.,46.244));
#481=CARTESIAN_POINT('Origin',(0.,0.,0.));
#482=CARTESIAN_POINT('',(12.7,1.55530143491714E-15,46.244));
#483=CARTESIAN_POINT('Origin',(0.,0.,46.244));
#484=CARTESIAN_POINT('',(12.7,1.55530143491714E-15,0.));
#485=CARTESIAN_POINT('Origin',(-1.29519693020651E-15,2.91397119324188E-16,
46.244));
#486=CARTESIAN_POINT('',(0.,0.,0.));
#487=CARTESIAN_POINT('Origin',(0.,1.5,0.));
#488=CARTESIAN_POINT('',(-20.,3.,0.));
#489=CARTESIAN_POINT('',(20.,3.,-2.44929359829471E-15));
#490=CARTESIAN_POINT('Origin',(0.,3.,0.));
#491=CARTESIAN_POINT('Origin',(0.,3.,0.));
#492=CARTESIAN_POINT('',(20.,0.,-2.44929359829471E-15));
#493=CARTESIAN_POINT('',(20.,1.5,-2.44929359829471E-15));
#494=CARTESIAN_POINT('',(-20.,0.,0.));
#495=CARTESIAN_POINT('Origin',(0.,0.,0.));
#496=CARTESIAN_POINT('Origin',(0.,0.,0.));
#497=CARTESIAN_POINT('Origin',(0.,3.95791836294126,0.));
#498=CARTESIAN_POINT('',(-12.85,4.91583672588253,0.));
#499=CARTESIAN_POINT('',(12.85,4.91583672588253,-1.57367113690435E-15));
#500=CARTESIAN_POINT('Origin',(0.,4.91583672588253,0.));
#501=CARTESIAN_POINT('Origin',(0.,4.91583672588253,0.));
#502=CARTESIAN_POINT('',(16.425,3.95791836294126,-2.01148236759953E-15));
#503=CARTESIAN_POINT('Origin',(0.,4.33583672588252,0.));
#504=CARTESIAN_POINT('',(12.85,3.75583672588252,-1.57367113690435E-15));
#505=CARTESIAN_POINT('',(12.85,4.33583672588252,-1.57367113690435E-15));
#506=CARTESIAN_POINT('',(-12.85,3.75583672588252,0.));
#507=CARTESIAN_POINT('Origin',(0.,3.75583672588252,0.));
#508=CARTESIAN_POINT('Origin',(0.,3.75583672588252,0.));
#509=CARTESIAN_POINT('Origin',(-11.875,3.75583672588253,0.));
#510=CARTESIAN_POINT('',(-11.875,3.75583672588253,0.));
#511=CARTESIAN_POINT('',(11.875,3.75583672588253,-1.45426807398748E-15));
#512=CARTESIAN_POINT('Origin',(0.,3.75583672588253,0.));
#513=CARTESIAN_POINT('Origin',(0.,3.75583672588253,0.));
#514=CARTESIAN_POINT('Origin',(0.,3.12791836294126,0.));
#515=CARTESIAN_POINT('',(11.875,2.5,-1.45426807398748E-15));
#516=CARTESIAN_POINT('',(11.875,3.12791836294126,-1.45426807398748E-15));
#517=CARTESIAN_POINT('',(-11.875,2.5,0.));
#518=CARTESIAN_POINT('Origin',(0.,2.5,0.));
#519=CARTESIAN_POINT('Origin',(0.,2.5,0.));
#520=CARTESIAN_POINT('Origin',(-13.1,2.5,0.));
#521=CARTESIAN_POINT('',(-13.1,2.5,0.));
#522=CARTESIAN_POINT('',(13.1,2.5,-1.60428730688303E-15));
#523=CARTESIAN_POINT('Origin',(0.,2.5,0.));
#524=CARTESIAN_POINT('Origin',(0.,2.5,0.));
#525=CARTESIAN_POINT('Origin',(0.,1.25,0.));
#526=CARTESIAN_POINT('',(13.1,0.,-1.60428730688303E-15));
#527=CARTESIAN_POINT('',(13.1,1.25,-1.60428730688303E-15));
#528=CARTESIAN_POINT('',(-13.1,0.,0.));
#529=CARTESIAN_POINT('Origin',(0.,0.,0.));
#530=CARTESIAN_POINT('Origin',(0.,0.,0.));
#531=CARTESIAN_POINT('Origin',(-20.,0.,0.));
#532=CARTESIAN_POINT('',(0.,0.,0.));
#533=CARTESIAN_POINT('',(5.47382212626882E-48,0.,0.));
#534=CARTESIAN_POINT('',(-8.62708776488417E-33,7.40148683083437E-17,-7.40148683083437E-17));
#535=CARTESIAN_POINT('',(-8.62708776488422E-33,7.40148683083438E-17,-7.39557098644699E-32));
#536=CARTESIAN_POINT('',(5.84521350997014E-30,-1.59131423050885E-14,-49.9998367258825));
#537=CARTESIAN_POINT('',(-5.82792335544076E-15,49.9998367258825,-6.29124567914076E-15));
#538=CARTESIAN_POINT('',(5.82792335544076E-15,-49.9998367258825,1.6653290988172E-14));
#539=CARTESIAN_POINT('',(0.,0.,49.9998367258825));
#540=UNCERTAINTY_MEASURE_WITH_UNIT(LENGTH_MEASURE(0.01),#548,
'DISTANCE_ACCURACY_VALUE',
'Maximum model space distance between geometric entities at asserted c
onnectivities');
#541=UNCERTAINTY_MEASURE_WITH_UNIT(LENGTH_MEASURE(0.01),#548,
'DISTANCE_ACCURACY_VALUE',
'Maximum model space distance between geometric entities at asserted c
onnectivities');
#542=UNCERTAINTY_MEASURE_WITH_UNIT(LENGTH_MEASURE(0.01),#548,
'DISTANCE_ACCURACY_VALUE',
'Maximum model space distance between geometric entities at asserted c
onnectivities');
#543=UNCERTAINTY_MEASURE_WITH_UNIT(LENGTH_MEASURE(0.01),#548,
'DISTANCE_ACCURACY_VALUE',
'Maximum model space distance between geometric entities at asserted c
onnectivities');
#544=(
GEOMETRIC_REPRESENTATION_CONTEXT(3)
GLOBAL_UNCERTAINTY_ASSIGNED_CONTEXT((#540))
GLOBAL_UNIT_ASSIGNED_CONTEXT((#548,#551,#550))
REPRESENTATION_CONTEXT('','3D')
);
#545=(
GEOMETRIC_REPRESENTATION_CONTEXT(3)
GLOBAL_UNCERTAINTY_ASSIGNED_CONTEXT((#541))
GLOBAL_UNIT_ASSIGNED_CONTEXT((#548,#551,#550))
REPRESENTATION_CONTEXT('','3D')
);
#546=(
GEOMETRIC_REPRESENTATION_CONTEXT(3)
GLOBAL_UNCERTAINTY_ASSIGNED_CONTEXT((#542))
GLOBAL_UNIT_ASSIGNED_CONTEXT((#548,#551,#550))
REPRESENTATION_CONTEXT('','3D')
);
#547=(
GEOMETRIC_REPRESENTATION_CONTEXT(3)
GLOBAL_UNCERTAINTY_ASSIGNED_CONTEXT((#543))
GLOBAL_UNIT_ASSIGNED_CONTEXT((#548,#551,#550))
REPRESENTATION_CONTEXT('','3D')
);
#548=(
LENGTH_UNIT()
NAMED_UNIT(*)
SI_UNIT(.MILLI.,.METRE.)
);
#549=(
LENGTH_UNIT()
NAMED_UNIT(*)
SI_UNIT(.CENTI.,.METRE.)
);
#550=(
NAMED_UNIT(*)
SI_UNIT($,.STERADIAN.)
SOLID_ANGLE_UNIT()
);
#551=(
NAMED_UNIT(*)
PLANE_ANGLE_UNIT()
SI_UNIT($,.RADIAN.)
);
#552=SHAPE_DEFINITION_REPRESENTATION(#555,#566);
#553=SHAPE_DEFINITION_REPRESENTATION(#556,#567);
#554=SHAPE_DEFINITION_REPRESENTATION(#557,#568);
#555=PRODUCT_DEFINITION_SHAPE('',$,#570);
#556=PRODUCT_DEFINITION_SHAPE('',$,#571);
#557=PRODUCT_DEFINITION_SHAPE('',$,#572);
#558=PRODUCT_DEFINITION_SHAPE($,$,#35);
#559=PRODUCT_DEFINITION_SHAPE($,$,#36);
#560=PRODUCT_DEFINITION_SHAPE($,$,#37);
#561=PRODUCT_DEFINITION_SHAPE($,$,#38);
#562=PRODUCT_DEFINITION_SHAPE($,$,#39);
#563=PRODUCT_DEFINITION_SHAPE($,$,#40);
#564=PRODUCT_DEFINITION_SHAPE($,$,#41);
#565=PRODUCT_DEFINITION_SHAPE($,$,#42);
#566=SHAPE_REPRESENTATION('',(#316,#354,#355,#356,#357,#358,#359,#360,#361),
#544);
#567=SHAPE_REPRESENTATION('',(#317),#545);
#568=SHAPE_REPRESENTATION('',(#329),#546);
#569=PRODUCT_DEFINITION_CONTEXT('part definition',#580,'design');
#570=PRODUCT_DEFINITION('FL-4X25KF','FL-4X25KF',#573,#569);
#571=PRODUCT_DEFINITION('Tube','Tube',#574,#569);
#572=PRODUCT_DEFINITION('FL-25KF-25W','FL-25KF-25W',#575,#569);
#573=PRODUCT_DEFINITION_FORMATION('',$,#582);
#574=PRODUCT_DEFINITION_FORMATION('',$,#583);
#575=PRODUCT_DEFINITION_FORMATION('',$,#584);
#576=PRODUCT_RELATED_PRODUCT_CATEGORY('FL-4X25KF','FL-4X25KF',(#582));
#577=PRODUCT_RELATED_PRODUCT_CATEGORY('Tube','Tube',(#583));
#578=PRODUCT_RELATED_PRODUCT_CATEGORY('FL-25KF-25W','FL-25KF-25W',(#584));
#579=APPLICATION_PROTOCOL_DEFINITION('international standard',
'automotive_design',2009,#580);
#580=APPLICATION_CONTEXT(
'Core Data for Automotive Mechanical Design Process');
#581=PRODUCT_CONTEXT('part definition',#580,'mechanical');
#582=PRODUCT('FL-4X25KF','FL-4X25KF',$,(#581));
#583=PRODUCT('Tube','Tube',$,(#581));
#584=PRODUCT('FL-25KF-25W','FL-25KF-25W',$,(#581));
ENDSEC;
END-ISO-10303-21;
