ISO-10303-21;
HEADER;
/* Generated by software containing ST-Developer
 * from STEP Tools, Inc. (www.steptools.com) 
 */

FILE_DESCRIPTION(
/* description */ (''),
/* implementation_level */ '2;1');

FILE_NAME(
/* name */ 
'G:\\FLANGES & FITTINGS\\Crosses KF 4 way\\Step files\\FL-4X10KF.stp',
/* time_stamp */ '2019-01-25T14:42:21+00:00',
/* author */ ('paul'),
/* organization */ (''),
/* preprocessor_version */ 'ST-DEVELOPER v17.2',
/* originating_system */ 'Autodesk Inventor 2019',
/* authorisation */ '');

FILE_SCHEMA (('AUTOMOTIVE_DESIGN { 1 0 10303 214 3 1 1 }'));
ENDSEC;

DATA;
#10=MECHANICAL_DESIGN_GEOMETRIC_PRESENTATION_REPRESENTATION('',(#48,#49),
#514);
#11=ITEM_DEFINED_TRANSFORMATION($,$,#300,#334);
#12=ITEM_DEFINED_TRANSFORMATION($,$,#300,#335);
#13=ITEM_DEFINED_TRANSFORMATION($,$,#300,#336);
#14=ITEM_DEFINED_TRANSFORMATION($,$,#300,#337);
#15=ITEM_DEFINED_TRANSFORMATION($,$,#312,#338);
#16=ITEM_DEFINED_TRANSFORMATION($,$,#312,#339);
#17=ITEM_DEFINED_TRANSFORMATION($,$,#312,#340);
#18=ITEM_DEFINED_TRANSFORMATION($,$,#312,#341);
#19=(
REPRESENTATION_RELATIONSHIP($,$,#534,#533)
REPRESENTATION_RELATIONSHIP_WITH_TRANSFORMATION(#11)
SHAPE_REPRESENTATION_RELATIONSHIP()
);
#20=(
REPRESENTATION_RELATIONSHIP($,$,#534,#533)
REPRESENTATION_RELATIONSHIP_WITH_TRANSFORMATION(#12)
SHAPE_REPRESENTATION_RELATIONSHIP()
);
#21=(
REPRESENTATION_RELATIONSHIP($,$,#534,#533)
REPRESENTATION_RELATIONSHIP_WITH_TRANSFORMATION(#13)
SHAPE_REPRESENTATION_RELATIONSHIP()
);
#22=(
REPRESENTATION_RELATIONSHIP($,$,#534,#533)
REPRESENTATION_RELATIONSHIP_WITH_TRANSFORMATION(#14)
SHAPE_REPRESENTATION_RELATIONSHIP()
);
#23=(
REPRESENTATION_RELATIONSHIP($,$,#535,#533)
REPRESENTATION_RELATIONSHIP_WITH_TRANSFORMATION(#15)
SHAPE_REPRESENTATION_RELATIONSHIP()
);
#24=(
REPRESENTATION_RELATIONSHIP($,$,#535,#533)
REPRESENTATION_RELATIONSHIP_WITH_TRANSFORMATION(#16)
SHAPE_REPRESENTATION_RELATIONSHIP()
);
#25=(
REPRESENTATION_RELATIONSHIP($,$,#535,#533)
REPRESENTATION_RELATIONSHIP_WITH_TRANSFORMATION(#17)
SHAPE_REPRESENTATION_RELATIONSHIP()
);
#26=(
REPRESENTATION_RELATIONSHIP($,$,#535,#533)
REPRESENTATION_RELATIONSHIP_WITH_TRANSFORMATION(#18)
SHAPE_REPRESENTATION_RELATIONSHIP()
);
#27=CONTEXT_DEPENDENT_SHAPE_REPRESENTATION(#19,#525);
#28=CONTEXT_DEPENDENT_SHAPE_REPRESENTATION(#20,#526);
#29=CONTEXT_DEPENDENT_SHAPE_REPRESENTATION(#21,#527);
#30=CONTEXT_DEPENDENT_SHAPE_REPRESENTATION(#22,#528);
#31=CONTEXT_DEPENDENT_SHAPE_REPRESENTATION(#23,#529);
#32=CONTEXT_DEPENDENT_SHAPE_REPRESENTATION(#24,#530);
#33=CONTEXT_DEPENDENT_SHAPE_REPRESENTATION(#25,#531);
#34=CONTEXT_DEPENDENT_SHAPE_REPRESENTATION(#26,#532);
#35=NEXT_ASSEMBLY_USAGE_OCCURRENCE('Tube:9','Tube:9','Tube:9',#537,#538,
'Tube:9');
#36=NEXT_ASSEMBLY_USAGE_OCCURRENCE('Tube:10','Tube:10','Tube:10',#537,#538,
'Tube:10');
#37=NEXT_ASSEMBLY_USAGE_OCCURRENCE('Tube:11','Tube:11','Tube:11',#537,#538,
'Tube:11');
#38=NEXT_ASSEMBLY_USAGE_OCCURRENCE('Tube:12','Tube:12','Tube:12',#537,#538,
'Tube:12');
#39=NEXT_ASSEMBLY_USAGE_OCCURRENCE('FL-10KF-12W:1','FL-10KF-12W:1',
'FL-10KF-12W:1',#537,#539,'FL-10KF-12W:1');
#40=NEXT_ASSEMBLY_USAGE_OCCURRENCE('FL-10KF-12W:2','FL-10KF-12W:2',
'FL-10KF-12W:2',#537,#539,'FL-10KF-12W:2');
#41=NEXT_ASSEMBLY_USAGE_OCCURRENCE('FL-10KF-12W:3','FL-10KF-12W:3',
'FL-10KF-12W:3',#537,#539,'FL-10KF-12W:3');
#42=NEXT_ASSEMBLY_USAGE_OCCURRENCE('FL-10KF-12W:4','FL-10KF-12W:4',
'FL-10KF-12W:4',#537,#539,'FL-10KF-12W:4');
#43=CONICAL_SURFACE('',#318,11.2679491924311,1.30899693899575);
#44=SHAPE_REPRESENTATION_RELATIONSHIP('SRR','None',#534,#46);
#45=SHAPE_REPRESENTATION_RELATIONSHIP('SRR','None',#535,#47);
#46=ADVANCED_BREP_SHAPE_REPRESENTATION('',(#50),#512);
#47=ADVANCED_BREP_SHAPE_REPRESENTATION('',(#51),#513);
#48=STYLED_ITEM('',(#272),#50);
#49=STYLED_ITEM('',(#272),#51);
#50=MANIFOLD_SOLID_BREP('Solid1',#247);
#51=MANIFOLD_SOLID_BREP('Solid1',#248);
#52=FACE_BOUND('',#94,.T.);
#53=FACE_BOUND('',#98,.T.);
#54=FACE_BOUND('',#101,.T.);
#55=FACE_BOUND('',#104,.T.);
#56=CIRCLE('',#308,5.45);
#57=CIRCLE('',#310,6.35);
#58=CIRCLE('',#314,15.);
#59=CIRCLE('',#315,15.);
#60=CIRCLE('',#316,15.);
#61=CIRCLE('',#317,15.);
#62=CIRCLE('',#319,7.53589838486224);
#63=CIRCLE('',#320,7.53589838486224);
#64=CIRCLE('',#322,6.45);
#65=CIRCLE('',#323,6.45);
#66=CIRCLE('',#325,6.45);
#67=CIRCLE('',#326,6.45);
#68=CIRCLE('',#328,6.1);
#69=CIRCLE('',#329,6.1);
#70=CIRCLE('',#331,6.1);
#71=CIRCLE('',#332,6.1);
#72=CYLINDRICAL_SURFACE('',#307,5.45);
#73=CYLINDRICAL_SURFACE('',#309,6.35);
#74=CYLINDRICAL_SURFACE('',#313,15.);
#75=CYLINDRICAL_SURFACE('',#324,6.45);
#76=CYLINDRICAL_SURFACE('',#330,6.1);
#77=FACE_OUTER_BOUND('',#89,.T.);
#78=FACE_OUTER_BOUND('',#90,.T.);
#79=FACE_OUTER_BOUND('',#91,.T.);
#80=FACE_OUTER_BOUND('',#92,.T.);
#81=FACE_OUTER_BOUND('',#93,.T.);
#82=FACE_OUTER_BOUND('',#95,.T.);
#83=FACE_OUTER_BOUND('',#96,.T.);
#84=FACE_OUTER_BOUND('',#97,.T.);
#85=FACE_OUTER_BOUND('',#99,.T.);
#86=FACE_OUTER_BOUND('',#100,.T.);
#87=FACE_OUTER_BOUND('',#102,.T.);
#88=FACE_OUTER_BOUND('',#103,.T.);
#89=EDGE_LOOP('',(#173,#174,#175,#176));
#90=EDGE_LOOP('',(#177,#178,#179,#180));
#91=EDGE_LOOP('',(#181,#182,#183,#184,#185));
#92=EDGE_LOOP('',(#186,#187,#188,#189,#190));
#93=EDGE_LOOP('',(#191));
#94=EDGE_LOOP('',(#192));
#95=EDGE_LOOP('',(#193,#194,#195,#196,#197,#198));
#96=EDGE_LOOP('',(#199,#200,#201,#202,#203,#204));
#97=EDGE_LOOP('',(#205,#206));
#98=EDGE_LOOP('',(#207,#208));
#99=EDGE_LOOP('',(#209,#210,#211,#212,#213,#214));
#100=EDGE_LOOP('',(#215,#216));
#101=EDGE_LOOP('',(#217,#218));
#102=EDGE_LOOP('',(#219,#220,#221,#222,#223,#224));
#103=EDGE_LOOP('',(#225,#226));
#104=EDGE_LOOP('',(#227,#228));
#105=LINE('',#443,#113);
#106=LINE('',#446,#114);
#107=LINE('',#452,#115);
#108=LINE('',#457,#116);
#109=LINE('',#466,#117);
#110=LINE('',#475,#118);
#111=LINE('',#483,#119);
#112=LINE('',#494,#120);
#113=VECTOR('',#350,10.);
#114=VECTOR('',#353,10.);
#115=VECTOR('',#362,5.45);
#116=VECTOR('',#369,6.35);
#117=VECTOR('',#380,15.);
#118=VECTOR('',#391,11.2679491924311);
#119=VECTOR('',#400,6.45);
#120=VECTOR('',#413,6.1);
#121=ELLIPSE('',#302,7.70746391493337,5.45);
#122=ELLIPSE('',#303,8.98025612106915,6.35);
#123=ELLIPSE('',#305,7.70746391493337,5.45);
#124=ELLIPSE('',#306,8.98025612106916,6.35);
#125=VERTEX_POINT('',#439);
#126=VERTEX_POINT('',#440);
#127=VERTEX_POINT('',#442);
#128=VERTEX_POINT('',#444);
#129=VERTEX_POINT('',#451);
#130=VERTEX_POINT('',#455);
#131=VERTEX_POINT('',#461);
#132=VERTEX_POINT('',#462);
#133=VERTEX_POINT('',#465);
#134=VERTEX_POINT('',#467);
#135=VERTEX_POINT('',#471);
#136=VERTEX_POINT('',#472);
#137=VERTEX_POINT('',#477);
#138=VERTEX_POINT('',#478);
#139=VERTEX_POINT('',#482);
#140=VERTEX_POINT('',#484);
#141=VERTEX_POINT('',#488);
#142=VERTEX_POINT('',#489);
#143=VERTEX_POINT('',#493);
#144=VERTEX_POINT('',#495);
#145=EDGE_CURVE('',#125,#126,#121,.T.);
#146=EDGE_CURVE('',#125,#127,#105,.T.);
#147=EDGE_CURVE('',#128,#127,#122,.T.);
#148=EDGE_CURVE('',#128,#126,#106,.T.);
#149=EDGE_CURVE('',#126,#125,#123,.T.);
#150=EDGE_CURVE('',#127,#128,#124,.T.);
#151=EDGE_CURVE('',#125,#129,#107,.T.);
#152=EDGE_CURVE('',#129,#129,#56,.T.);
#153=EDGE_CURVE('',#130,#130,#57,.T.);
#154=EDGE_CURVE('',#130,#127,#108,.T.);
#155=EDGE_CURVE('',#131,#132,#58,.T.);
#156=EDGE_CURVE('',#132,#131,#59,.T.);
#157=EDGE_CURVE('',#132,#133,#109,.T.);
#158=EDGE_CURVE('',#133,#134,#60,.T.);
#159=EDGE_CURVE('',#134,#133,#61,.T.);
#160=EDGE_CURVE('',#135,#136,#62,.T.);
#161=EDGE_CURVE('',#136,#135,#63,.T.);
#162=EDGE_CURVE('',#136,#132,#110,.T.);
#163=EDGE_CURVE('',#137,#138,#64,.T.);
#164=EDGE_CURVE('',#138,#137,#65,.T.);
#165=EDGE_CURVE('',#138,#139,#111,.T.);
#166=EDGE_CURVE('',#140,#139,#66,.T.);
#167=EDGE_CURVE('',#139,#140,#67,.T.);
#168=EDGE_CURVE('',#141,#142,#68,.T.);
#169=EDGE_CURVE('',#142,#141,#69,.T.);
#170=EDGE_CURVE('',#142,#143,#112,.T.);
#171=EDGE_CURVE('',#144,#143,#70,.T.);
#172=EDGE_CURVE('',#143,#144,#71,.T.);
#173=ORIENTED_EDGE('',*,*,#145,.F.);
#174=ORIENTED_EDGE('',*,*,#146,.T.);
#175=ORIENTED_EDGE('',*,*,#147,.F.);
#176=ORIENTED_EDGE('',*,*,#148,.T.);
#177=ORIENTED_EDGE('',*,*,#149,.F.);
#178=ORIENTED_EDGE('',*,*,#148,.F.);
#179=ORIENTED_EDGE('',*,*,#150,.F.);
#180=ORIENTED_EDGE('',*,*,#146,.F.);
#181=ORIENTED_EDGE('',*,*,#145,.T.);
#182=ORIENTED_EDGE('',*,*,#149,.T.);
#183=ORIENTED_EDGE('',*,*,#151,.T.);
#184=ORIENTED_EDGE('',*,*,#152,.F.);
#185=ORIENTED_EDGE('',*,*,#151,.F.);
#186=ORIENTED_EDGE('',*,*,#153,.F.);
#187=ORIENTED_EDGE('',*,*,#154,.T.);
#188=ORIENTED_EDGE('',*,*,#150,.T.);
#189=ORIENTED_EDGE('',*,*,#147,.T.);
#190=ORIENTED_EDGE('',*,*,#154,.F.);
#191=ORIENTED_EDGE('',*,*,#153,.T.);
#192=ORIENTED_EDGE('',*,*,#152,.T.);
#193=ORIENTED_EDGE('',*,*,#155,.F.);
#194=ORIENTED_EDGE('',*,*,#156,.F.);
#195=ORIENTED_EDGE('',*,*,#157,.T.);
#196=ORIENTED_EDGE('',*,*,#158,.T.);
#197=ORIENTED_EDGE('',*,*,#159,.T.);
#198=ORIENTED_EDGE('',*,*,#157,.F.);
#199=ORIENTED_EDGE('',*,*,#160,.F.);
#200=ORIENTED_EDGE('',*,*,#161,.F.);
#201=ORIENTED_EDGE('',*,*,#162,.T.);
#202=ORIENTED_EDGE('',*,*,#156,.T.);
#203=ORIENTED_EDGE('',*,*,#155,.T.);
#204=ORIENTED_EDGE('',*,*,#162,.F.);
#205=ORIENTED_EDGE('',*,*,#160,.T.);
#206=ORIENTED_EDGE('',*,*,#161,.T.);
#207=ORIENTED_EDGE('',*,*,#163,.F.);
#208=ORIENTED_EDGE('',*,*,#164,.F.);
#209=ORIENTED_EDGE('',*,*,#163,.T.);
#210=ORIENTED_EDGE('',*,*,#165,.T.);
#211=ORIENTED_EDGE('',*,*,#166,.F.);
#212=ORIENTED_EDGE('',*,*,#167,.F.);
#213=ORIENTED_EDGE('',*,*,#165,.F.);
#214=ORIENTED_EDGE('',*,*,#164,.T.);
#215=ORIENTED_EDGE('',*,*,#166,.T.);
#216=ORIENTED_EDGE('',*,*,#167,.T.);
#217=ORIENTED_EDGE('',*,*,#168,.F.);
#218=ORIENTED_EDGE('',*,*,#169,.F.);
#219=ORIENTED_EDGE('',*,*,#168,.T.);
#220=ORIENTED_EDGE('',*,*,#170,.T.);
#221=ORIENTED_EDGE('',*,*,#171,.F.);
#222=ORIENTED_EDGE('',*,*,#172,.F.);
#223=ORIENTED_EDGE('',*,*,#170,.F.);
#224=ORIENTED_EDGE('',*,*,#169,.T.);
#225=ORIENTED_EDGE('',*,*,#159,.F.);
#226=ORIENTED_EDGE('',*,*,#158,.F.);
#227=ORIENTED_EDGE('',*,*,#171,.T.);
#228=ORIENTED_EDGE('',*,*,#172,.T.);
#229=PLANE('',#301);
#230=PLANE('',#304);
#231=PLANE('',#311);
#232=PLANE('',#321);
#233=PLANE('',#327);
#234=PLANE('',#333);
#235=ADVANCED_FACE('',(#77),#229,.F.);
#236=ADVANCED_FACE('',(#78),#230,.F.);
#237=ADVANCED_FACE('',(#79),#72,.F.);
#238=ADVANCED_FACE('',(#80),#73,.T.);
#239=ADVANCED_FACE('',(#81,#52),#231,.T.);
#240=ADVANCED_FACE('',(#82),#74,.T.);
#241=ADVANCED_FACE('',(#83),#43,.T.);
#242=ADVANCED_FACE('',(#84,#53),#232,.T.);
#243=ADVANCED_FACE('',(#85),#75,.F.);
#244=ADVANCED_FACE('',(#86,#54),#233,.T.);
#245=ADVANCED_FACE('',(#87),#76,.F.);
#246=ADVANCED_FACE('',(#88,#55),#234,.T.);
#247=CLOSED_SHELL('',(#235,#236,#237,#238,#239));
#248=CLOSED_SHELL('',(#240,#241,#242,#243,#244,#245,#246));
#249=DERIVED_UNIT_ELEMENT(#253,1.);
#250=DERIVED_UNIT_ELEMENT(#516,3.);
#251=DERIVED_UNIT_ELEMENT(#253,1.);
#252=DERIVED_UNIT_ELEMENT(#516,3.);
#253=(
MASS_UNIT()
NAMED_UNIT(*)
SI_UNIT($,.GRAM.)
);
#254=DERIVED_UNIT((#249,#250));
#255=DERIVED_UNIT((#251,#252));
#256=MEASURE_REPRESENTATION_ITEM('density measure',
POSITIVE_RATIO_MEASURE(8.),#254);
#257=MEASURE_REPRESENTATION_ITEM('density measure',
POSITIVE_RATIO_MEASURE(8.),#255);
#258=PROPERTY_DEFINITION_REPRESENTATION(#268,#262);
#259=PROPERTY_DEFINITION_REPRESENTATION(#269,#263);
#260=PROPERTY_DEFINITION_REPRESENTATION(#270,#264);
#261=PROPERTY_DEFINITION_REPRESENTATION(#271,#265);
#262=REPRESENTATION('material name',(#266),#512);
#263=REPRESENTATION('density',(#256),#512);
#264=REPRESENTATION('material name',(#267),#513);
#265=REPRESENTATION('density',(#257),#513);
#266=DESCRIPTIVE_REPRESENTATION_ITEM('Stainless Steel AISI 304',
'Stainless Steel AISI 304');
#267=DESCRIPTIVE_REPRESENTATION_ITEM('Stainless Steel AISI 304',
'Stainless Steel AISI 304');
#268=PROPERTY_DEFINITION('material property','material name',#538);
#269=PROPERTY_DEFINITION('material property','density of part',#538);
#270=PROPERTY_DEFINITION('material property','material name',#539);
#271=PROPERTY_DEFINITION('material property','density of part',#539);
#272=PRESENTATION_STYLE_ASSIGNMENT((#273));
#273=SURFACE_STYLE_USAGE(.BOTH.,#276);
#274=SURFACE_STYLE_RENDERING_WITH_PROPERTIES($,#280,(#275));
#275=SURFACE_STYLE_TRANSPARENT(1.);
#276=SURFACE_SIDE_STYLE('',(#277,#274));
#277=SURFACE_STYLE_FILL_AREA(#278);
#278=FILL_AREA_STYLE('',(#279));
#279=FILL_AREA_STYLE_COLOUR('',#280);
#280=COLOUR_RGB('',0.745098039215686,0.737254901960784,0.729411764705882);
#281=DATE_TIME_ROLE('creation_date');
#282=DATE_TIME_ROLE('creation_date');
#283=DATE_TIME_ROLE('creation_date');
#284=APPLIED_DATE_AND_TIME_ASSIGNMENT(#287,#281,(#537));
#285=APPLIED_DATE_AND_TIME_ASSIGNMENT(#288,#282,(#538));
#286=APPLIED_DATE_AND_TIME_ASSIGNMENT(#289,#283,(#539));
#287=DATE_AND_TIME(#290,#293);
#288=DATE_AND_TIME(#291,#294);
#289=DATE_AND_TIME(#292,#295);
#290=CALENDAR_DATE(2018,9,7);
#291=CALENDAR_DATE(2018,9,7);
#292=CALENDAR_DATE(2014,20,11);
#293=LOCAL_TIME(9,3,33.,#296);
#294=LOCAL_TIME(8,59,55.,#297);
#295=LOCAL_TIME(11,0,44.,#298);
#296=COORDINATED_UNIVERSAL_TIME_OFFSET(0,0,.BEHIND.);
#297=COORDINATED_UNIVERSAL_TIME_OFFSET(0,0,.BEHIND.);
#298=COORDINATED_UNIVERSAL_TIME_OFFSET(0,0,.BEHIND.);
#299=AXIS2_PLACEMENT_3D('placement',#436,#342,#343);
#300=AXIS2_PLACEMENT_3D('placement',#437,#344,#345);
#301=AXIS2_PLACEMENT_3D('',#438,#346,#347);
#302=AXIS2_PLACEMENT_3D('',#441,#348,#349);
#303=AXIS2_PLACEMENT_3D('',#445,#351,#352);
#304=AXIS2_PLACEMENT_3D('',#447,#354,#355);
#305=AXIS2_PLACEMENT_3D('',#448,#356,#357);
#306=AXIS2_PLACEMENT_3D('',#449,#358,#359);
#307=AXIS2_PLACEMENT_3D('',#450,#360,#361);
#308=AXIS2_PLACEMENT_3D('',#453,#363,#364);
#309=AXIS2_PLACEMENT_3D('',#454,#365,#366);
#310=AXIS2_PLACEMENT_3D('',#456,#367,#368);
#311=AXIS2_PLACEMENT_3D('',#458,#370,#371);
#312=AXIS2_PLACEMENT_3D('placement',#459,#372,#373);
#313=AXIS2_PLACEMENT_3D('',#460,#374,#375);
#314=AXIS2_PLACEMENT_3D('',#463,#376,#377);
#315=AXIS2_PLACEMENT_3D('',#464,#378,#379);
#316=AXIS2_PLACEMENT_3D('',#468,#381,#382);
#317=AXIS2_PLACEMENT_3D('',#469,#383,#384);
#318=AXIS2_PLACEMENT_3D('',#470,#385,#386);
#319=AXIS2_PLACEMENT_3D('',#473,#387,#388);
#320=AXIS2_PLACEMENT_3D('',#474,#389,#390);
#321=AXIS2_PLACEMENT_3D('',#476,#392,#393);
#322=AXIS2_PLACEMENT_3D('',#479,#394,#395);
#323=AXIS2_PLACEMENT_3D('',#480,#396,#397);
#324=AXIS2_PLACEMENT_3D('',#481,#398,#399);
#325=AXIS2_PLACEMENT_3D('',#485,#401,#402);
#326=AXIS2_PLACEMENT_3D('',#486,#403,#404);
#327=AXIS2_PLACEMENT_3D('',#487,#405,#406);
#328=AXIS2_PLACEMENT_3D('',#490,#407,#408);
#329=AXIS2_PLACEMENT_3D('',#491,#409,#410);
#330=AXIS2_PLACEMENT_3D('',#492,#411,#412);
#331=AXIS2_PLACEMENT_3D('',#496,#414,#415);
#332=AXIS2_PLACEMENT_3D('',#497,#416,#417);
#333=AXIS2_PLACEMENT_3D('',#498,#418,#419);
#334=AXIS2_PLACEMENT_3D('',#499,#420,#421);
#335=AXIS2_PLACEMENT_3D('',#500,#422,#423);
#336=AXIS2_PLACEMENT_3D('',#501,#424,#425);
#337=AXIS2_PLACEMENT_3D('',#502,#426,#427);
#338=AXIS2_PLACEMENT_3D('',#503,#428,#429);
#339=AXIS2_PLACEMENT_3D('',#504,#430,#431);
#340=AXIS2_PLACEMENT_3D('',#505,#432,#433);
#341=AXIS2_PLACEMENT_3D('',#506,#434,#435);
#342=DIRECTION('axis',(0.,0.,1.));
#343=DIRECTION('refdir',(1.,0.,0.));
#344=DIRECTION('axis',(0.,0.,1.));
#345=DIRECTION('refdir',(1.,0.,0.));
#346=DIRECTION('center_axis',(-8.24195516369435E-17,0.707106781186547,0.707106781186548));
#347=DIRECTION('ref_axis',(-8.65956056235494E-17,0.707106781186548,-0.707106781186547));
#348=DIRECTION('center_axis',(8.24195516369435E-17,-0.707106781186547,-0.707106781186548));
#349=DIRECTION('ref_axis',(0.,-0.707106781186548,0.707106781186547));
#350=DIRECTION('',(1.,1.16558847729675E-16,0.));
#351=DIRECTION('center_axis',(-8.24195516369435E-17,0.707106781186547,0.707106781186548));
#352=DIRECTION('ref_axis',(0.,-0.707106781186548,0.707106781186547));
#353=DIRECTION('',(1.,1.16558847729675E-16,0.));
#354=DIRECTION('center_axis',(8.24195516369436E-17,-0.707106781186548,0.707106781186547));
#355=DIRECTION('ref_axis',(-8.65956056235493E-17,0.707106781186547,0.707106781186548));
#356=DIRECTION('center_axis',(-8.24195516369436E-17,0.707106781186548,-0.707106781186547));
#357=DIRECTION('ref_axis',(0.,-0.707106781186547,-0.707106781186548));
#358=DIRECTION('center_axis',(8.24195516369436E-17,-0.707106781186548,0.707106781186547));
#359=DIRECTION('ref_axis',(0.,-0.707106781186547,-0.707106781186548));
#360=DIRECTION('center_axis',(0.,0.,1.));
#361=DIRECTION('ref_axis',(-1.,0.,0.));
#362=DIRECTION('',(0.,0.,1.));
#363=DIRECTION('center_axis',(0.,0.,-1.));
#364=DIRECTION('ref_axis',(-1.,0.,0.));
#365=DIRECTION('center_axis',(0.,0.,1.));
#366=DIRECTION('ref_axis',(-1.,0.,0.));
#367=DIRECTION('center_axis',(0.,0.,1.));
#368=DIRECTION('ref_axis',(-1.,0.,0.));
#369=DIRECTION('',(0.,0.,-1.));
#370=DIRECTION('center_axis',(0.,0.,1.));
#371=DIRECTION('ref_axis',(1.,0.,0.));
#372=DIRECTION('axis',(0.,0.,1.));
#373=DIRECTION('refdir',(1.,0.,0.));
#374=DIRECTION('center_axis',(0.,1.,0.));
#375=DIRECTION('ref_axis',(-1.,0.,0.));
#376=DIRECTION('center_axis',(0.,1.,0.));
#377=DIRECTION('ref_axis',(1.,0.,0.));
#378=DIRECTION('center_axis',(0.,1.,0.));
#379=DIRECTION('ref_axis',(1.,0.,0.));
#380=DIRECTION('',(0.,-1.,0.));
#381=DIRECTION('center_axis',(0.,1.,0.));
#382=DIRECTION('ref_axis',(1.,0.,0.));
#383=DIRECTION('center_axis',(0.,1.,0.));
#384=DIRECTION('ref_axis',(1.,0.,0.));
#385=DIRECTION('center_axis',(0.,-1.,0.));
#386=DIRECTION('ref_axis',(-1.,0.,0.));
#387=DIRECTION('center_axis',(0.,1.,0.));
#388=DIRECTION('ref_axis',(1.,0.,0.));
#389=DIRECTION('center_axis',(0.,1.,0.));
#390=DIRECTION('ref_axis',(1.,0.,0.));
#391=DIRECTION('',(0.965925826289068,-0.258819045102521,-1.18291797137867E-16));
#392=DIRECTION('center_axis',(0.,1.,0.));
#393=DIRECTION('ref_axis',(0.,0.,1.));
#394=DIRECTION('center_axis',(0.,1.,0.));
#395=DIRECTION('ref_axis',(1.,0.,0.));
#396=DIRECTION('center_axis',(0.,1.,0.));
#397=DIRECTION('ref_axis',(1.,0.,0.));
#398=DIRECTION('center_axis',(0.,1.,0.));
#399=DIRECTION('ref_axis',(-1.,0.,0.));
#400=DIRECTION('',(0.,-1.,0.));
#401=DIRECTION('center_axis',(0.,1.,0.));
#402=DIRECTION('ref_axis',(1.,0.,0.));
#403=DIRECTION('center_axis',(0.,1.,0.));
#404=DIRECTION('ref_axis',(1.,0.,0.));
#405=DIRECTION('center_axis',(0.,1.,0.));
#406=DIRECTION('ref_axis',(0.,0.,1.));
#407=DIRECTION('center_axis',(0.,1.,0.));
#408=DIRECTION('ref_axis',(1.,0.,0.));
#409=DIRECTION('center_axis',(0.,1.,0.));
#410=DIRECTION('ref_axis',(1.,0.,0.));
#411=DIRECTION('center_axis',(0.,1.,0.));
#412=DIRECTION('ref_axis',(-1.,0.,0.));
#413=DIRECTION('',(0.,-1.,0.));
#414=DIRECTION('center_axis',(0.,1.,0.));
#415=DIRECTION('ref_axis',(1.,0.,0.));
#416=DIRECTION('center_axis',(0.,1.,0.));
#417=DIRECTION('ref_axis',(1.,0.,0.));
#418=DIRECTION('center_axis',(0.,-1.,0.));
#419=DIRECTION('ref_axis',(0.,0.,-1.));
#420=DIRECTION('',(0.,0.,1.));
#421=DIRECTION('',(1.,0.,0.));
#422=DIRECTION('',(1.16558847729675E-16,-1.,-4.9960036108132E-16));
#423=DIRECTION('',(-1.,-1.16558847729675E-16,1.16558847729675E-16));
#424=DIRECTION('',(-1.16558847729675E-16,1.,4.9960036108132E-16));
#425=DIRECTION('',(-1.,-1.16558847729675E-16,-1.16558847729675E-16));
#426=DIRECTION('',(1.2826693429619E-31,1.47983018893433E-31,-1.));
#427=DIRECTION('',(-1.,-2.33117695459351E-16,-1.2826693429619E-31));
#428=DIRECTION('',(-1.1686558153949E-16,1.,3.33066907387547E-16));
#429=DIRECTION('',(-1.,-1.1686558153949E-16,-3.06733809815108E-19));
#430=DIRECTION('',(-3.06733809815058E-19,-1.66533453693774E-16,1.));
#431=DIRECTION('',(-1.,-1.1686558153949E-16,-3.06733809815078E-19));
#432=DIRECTION('',(-3.06733809814901E-19,3.88578058618805E-16,-1.));
#433=DIRECTION('',(-1.,-1.1686558153949E-16,3.06733809814856E-19));
#434=DIRECTION('',(-1.16558847729675E-16,1.,0.));
#435=DIRECTION('',(1.,1.16558847729675E-16,-3.08148791101958E-33));
#436=CARTESIAN_POINT('',(0.,0.,0.));
#437=CARTESIAN_POINT('',(0.,0.,0.));
#438=CARTESIAN_POINT('Origin',(6.35,-6.35,6.35));
#439=CARTESIAN_POINT('',(5.45,6.67432505535308E-16,0.));
#440=CARTESIAN_POINT('',(-5.45,-5.97743685751598E-16,0.));
#441=CARTESIAN_POINT('Origin',(0.,0.,7.85046229341887E-16));
#442=CARTESIAN_POINT('',(6.35,7.77650717458569E-16,0.));
#443=CARTESIAN_POINT('',(3.175,7.40148683083438E-16,0.));
#444=CARTESIAN_POINT('',(-6.35,-7.02646648708306E-16,0.));
#445=CARTESIAN_POINT('Origin',(0.,0.,7.85046229341887E-16));
#446=CARTESIAN_POINT('',(3.175,7.40148683083438E-16,0.));
#447=CARTESIAN_POINT('Origin',(6.35,1.11022302462516E-15,0.));
#448=CARTESIAN_POINT('Origin',(0.,0.,-3.70074341541719E-16));
#449=CARTESIAN_POINT('Origin',(0.,0.,-3.70074341541719E-16));
#450=CARTESIAN_POINT('Origin',(0.,0.,0.));
#451=CARTESIAN_POINT('',(5.45,6.67432505535308E-16,27.5));
#452=CARTESIAN_POINT('',(5.45,6.67432505535308E-16,0.));
#453=CARTESIAN_POINT('Origin',(0.,0.,27.5));
#454=CARTESIAN_POINT('Origin',(0.,0.,0.));
#455=CARTESIAN_POINT('',(6.35,7.77650717458569E-16,27.5));
#456=CARTESIAN_POINT('Origin',(0.,0.,27.5));
#457=CARTESIAN_POINT('',(6.35,7.77650717458569E-16,0.));
#458=CARTESIAN_POINT('Origin',(-6.47598465103257E-16,1.45698559662094E-16,
27.5));
#459=CARTESIAN_POINT('',(0.,0.,0.));
#460=CARTESIAN_POINT('Origin',(0.,1.5,0.));
#461=CARTESIAN_POINT('',(-15.,3.,0.));
#462=CARTESIAN_POINT('',(15.,3.,-1.83697019872103E-15));
#463=CARTESIAN_POINT('Origin',(0.,3.,0.));
#464=CARTESIAN_POINT('Origin',(0.,3.,0.));
#465=CARTESIAN_POINT('',(15.,0.,-1.83697019872103E-15));
#466=CARTESIAN_POINT('',(15.,1.5,-1.83697019872103E-15));
#467=CARTESIAN_POINT('',(-15.,0.,0.));
#468=CARTESIAN_POINT('Origin',(0.,0.,0.));
#469=CARTESIAN_POINT('Origin',(0.,0.,0.));
#470=CARTESIAN_POINT('Origin',(0.,4.,0.));
#471=CARTESIAN_POINT('',(-7.53589838486224,5.,0.));
#472=CARTESIAN_POINT('',(7.53589838486224,5.,-9.22881383572126E-16));
#473=CARTESIAN_POINT('Origin',(0.,5.,0.));
#474=CARTESIAN_POINT('Origin',(0.,5.,0.));
#475=CARTESIAN_POINT('',(11.2679491924311,4.,-1.37992579114658E-15));
#476=CARTESIAN_POINT('Origin',(-6.45,5.,0.));
#477=CARTESIAN_POINT('',(-6.45,5.,0.));
#478=CARTESIAN_POINT('',(6.45,5.,-7.89897185450043E-16));
#479=CARTESIAN_POINT('Origin',(0.,5.,0.));
#480=CARTESIAN_POINT('Origin',(0.,5.,0.));
#481=CARTESIAN_POINT('Origin',(0.,3.75,0.));
#482=CARTESIAN_POINT('',(6.45,2.5,-7.89897185450043E-16));
#483=CARTESIAN_POINT('',(6.45,3.75,-7.89897185450043E-16));
#484=CARTESIAN_POINT('',(-6.45,2.5,0.));
#485=CARTESIAN_POINT('Origin',(0.,2.5,0.));
#486=CARTESIAN_POINT('Origin',(0.,2.5,0.));
#487=CARTESIAN_POINT('Origin',(-6.1,2.5,0.));
#488=CARTESIAN_POINT('',(-6.1,2.5,0.));
#489=CARTESIAN_POINT('',(6.1,2.5,-7.47034547479885E-16));
#490=CARTESIAN_POINT('Origin',(0.,2.5,0.));
#491=CARTESIAN_POINT('Origin',(0.,2.5,0.));
#492=CARTESIAN_POINT('Origin',(0.,1.25,0.));
#493=CARTESIAN_POINT('',(6.1,2.77555756156289E-16,-7.47034547479885E-16));
#494=CARTESIAN_POINT('',(6.1,1.25,-7.47034547479885E-16));
#495=CARTESIAN_POINT('',(-6.1,2.77555756156289E-16,0.));
#496=CARTESIAN_POINT('Origin',(0.,2.77555756156289E-16,0.));
#497=CARTESIAN_POINT('Origin',(0.,2.77555756156289E-16,0.));
#498=CARTESIAN_POINT('Origin',(-15.,0.,0.));
#499=CARTESIAN_POINT('',(0.,0.,0.));
#500=CARTESIAN_POINT('',(-9.17189186116994E-33,7.85046229341887E-17,7.85046229341888E-17));
#501=CARTESIAN_POINT('',(-4.3514558892214E-33,3.70074341541719E-17,-3.7007434154172E-17));
#502=CARTESIAN_POINT('',(-1.34787040552204E-32,1.15512057088361E-16,1.57009245868378E-16));
#503=CARTESIAN_POINT('',(7.66834524540646E-19,1.114712779251E-14,-30.));
#504=CARTESIAN_POINT('',(-3.49753226641479E-15,30.,4.62592926927149E-15));
#505=CARTESIAN_POINT('',(3.49753226641479E-15,-30.,-1.08722955292223E-14));
#506=CARTESIAN_POINT('',(-5.61210437814634E-50,0.,30.));
#507=UNCERTAINTY_MEASURE_WITH_UNIT(LENGTH_MEASURE(0.01),#515,
'DISTANCE_ACCURACY_VALUE',
'Maximum model space distance between geometric entities at asserted c
onnectivities');
#508=UNCERTAINTY_MEASURE_WITH_UNIT(LENGTH_MEASURE(0.01),#515,
'DISTANCE_ACCURACY_VALUE',
'Maximum model space distance between geometric entities at asserted c
onnectivities');
#509=UNCERTAINTY_MEASURE_WITH_UNIT(LENGTH_MEASURE(0.01),#515,
'DISTANCE_ACCURACY_VALUE',
'Maximum model space distance between geometric entities at asserted c
onnectivities');
#510=UNCERTAINTY_MEASURE_WITH_UNIT(LENGTH_MEASURE(0.01),#515,
'DISTANCE_ACCURACY_VALUE',
'Maximum model space distance between geometric entities at asserted c
onnectivities');
#511=(
GEOMETRIC_REPRESENTATION_CONTEXT(3)
GLOBAL_UNCERTAINTY_ASSIGNED_CONTEXT((#507))
GLOBAL_UNIT_ASSIGNED_CONTEXT((#515,#517,#518))
REPRESENTATION_CONTEXT('','3D')
);
#512=(
GEOMETRIC_REPRESENTATION_CONTEXT(3)
GLOBAL_UNCERTAINTY_ASSIGNED_CONTEXT((#508))
GLOBAL_UNIT_ASSIGNED_CONTEXT((#515,#517,#518))
REPRESENTATION_CONTEXT('','3D')
);
#513=(
GEOMETRIC_REPRESENTATION_CONTEXT(3)
GLOBAL_UNCERTAINTY_ASSIGNED_CONTEXT((#509))
GLOBAL_UNIT_ASSIGNED_CONTEXT((#515,#517,#518))
REPRESENTATION_CONTEXT('','3D')
);
#514=(
GEOMETRIC_REPRESENTATION_CONTEXT(3)
GLOBAL_UNCERTAINTY_ASSIGNED_CONTEXT((#510))
GLOBAL_UNIT_ASSIGNED_CONTEXT((#515,#517,#518))
REPRESENTATION_CONTEXT('','3D')
);
#515=(
LENGTH_UNIT()
NAMED_UNIT(*)
SI_UNIT(.MILLI.,.METRE.)
);
#516=(
LENGTH_UNIT()
NAMED_UNIT(*)
SI_UNIT(.CENTI.,.METRE.)
);
#517=(
NAMED_UNIT(*)
PLANE_ANGLE_UNIT()
SI_UNIT($,.RADIAN.)
);
#518=(
NAMED_UNIT(*)
SI_UNIT($,.STERADIAN.)
SOLID_ANGLE_UNIT()
);
#519=SHAPE_DEFINITION_REPRESENTATION(#522,#533);
#520=SHAPE_DEFINITION_REPRESENTATION(#523,#534);
#521=SHAPE_DEFINITION_REPRESENTATION(#524,#535);
#522=PRODUCT_DEFINITION_SHAPE('',$,#537);
#523=PRODUCT_DEFINITION_SHAPE('',$,#538);
#524=PRODUCT_DEFINITION_SHAPE('',$,#539);
#525=PRODUCT_DEFINITION_SHAPE($,$,#35);
#526=PRODUCT_DEFINITION_SHAPE($,$,#36);
#527=PRODUCT_DEFINITION_SHAPE($,$,#37);
#528=PRODUCT_DEFINITION_SHAPE($,$,#38);
#529=PRODUCT_DEFINITION_SHAPE($,$,#39);
#530=PRODUCT_DEFINITION_SHAPE($,$,#40);
#531=PRODUCT_DEFINITION_SHAPE($,$,#41);
#532=PRODUCT_DEFINITION_SHAPE($,$,#42);
#533=SHAPE_REPRESENTATION('',(#299,#334,#335,#336,#337,#338,#339,#340,#341),
#511);
#534=SHAPE_REPRESENTATION('',(#300),#512);
#535=SHAPE_REPRESENTATION('',(#312),#513);
#536=PRODUCT_DEFINITION_CONTEXT('part definition',#547,'design');
#537=PRODUCT_DEFINITION('FL-4X25KF','FL-4X10KF',#540,#536);
#538=PRODUCT_DEFINITION('Tube','Tube',#541,#536);
#539=PRODUCT_DEFINITION('FL-10KF-12W','FL-10KF-12W',#542,#536);
#540=PRODUCT_DEFINITION_FORMATION('',$,#549);
#541=PRODUCT_DEFINITION_FORMATION('',$,#550);
#542=PRODUCT_DEFINITION_FORMATION('',$,#551);
#543=PRODUCT_RELATED_PRODUCT_CATEGORY('FL-4X10KF','FL-4X10KF',(#549));
#544=PRODUCT_RELATED_PRODUCT_CATEGORY('Tube','Tube',(#550));
#545=PRODUCT_RELATED_PRODUCT_CATEGORY('FL-10KF-12W','FL-10KF-12W',(#551));
#546=APPLICATION_PROTOCOL_DEFINITION('international standard',
'automotive_design',2009,#547);
#547=APPLICATION_CONTEXT(
'Core Data for Automotive Mechanical Design Process');
#548=PRODUCT_CONTEXT('part definition',#547,'mechanical');
#549=PRODUCT('FL-4X25KF','FL-4X10KF',$,(#548));
#550=PRODUCT('Tube','Tube',$,(#548));
#551=PRODUCT('FL-10KF-12W','FL-10KF-12W',$,(#548));
ENDSEC;
END-ISO-10303-21;
