ISO-10303-21;
HEADER;
/* Generated by software containing ST-Developer
 * from STEP Tools, Inc. (www.steptools.com) 
 */

FILE_DESCRIPTION(
/* description */ ('STEP AP203'),
/* implementation_level */ '2;1');

FILE_NAME(
/* name */ 'G:\\Accessories\\Ceramic Parts\\Step Files\\CS-AL10.stp',
/* time_stamp */ '2017-03-14T12:35:52+00:00',
/* author */ ('paul'),
/* organization */ (''),
/* preprocessor_version */ 'ST-DEVELOPER v16.5',
/* originating_system */ 'Autodesk Inventor 2017',
/* authorisation */ '');

FILE_SCHEMA (('AUTOMOTIVE_DESIGN { 1 0 10303 214 3 1 1 }'));
ENDSEC;

DATA;
#10=MECHANICAL_DESIGN_GEOMETRIC_PRESENTATION_REPRESENTATION('',(#15),#417);
#11=(
CONVERSION_BASED_UNIT('degree',#12)
NAMED_UNIT(#419)
PLANE_ANGLE_UNIT()
);
#12=PLANE_ANGLE_MEASURE_WITH_UNIT(PLANE_ANGLE_MEASURE(0.01745329252),#424);
#13=SHAPE_REPRESENTATION_RELATIONSHIP('SRR','None',#427,#14);
#14=ADVANCED_BREP_SHAPE_REPRESENTATION('',(#16),#416);
#15=STYLED_ITEM('',(#436),#16);
#16=MANIFOLD_SOLID_BREP('Solid1',#241);
#17=PLANE('',#282);
#18=PLANE('',#283);
#19=FACE_BOUND('',#64,.T.);
#20=FACE_BOUND('',#66,.T.);
#21=FACE_BOUND('',#68,.T.);
#22=FACE_BOUND('',#70,.T.);
#23=FACE_BOUND('',#72,.T.);
#24=FACE_BOUND('',#74,.T.);
#25=FACE_BOUND('',#76,.T.);
#26=FACE_BOUND('',#78,.T.);
#27=FACE_BOUND('',#80,.T.);
#28=FACE_BOUND('',#82,.T.);
#29=FACE_BOUND('',#84,.T.);
#30=FACE_BOUND('',#86,.T.);
#31=FACE_BOUND('',#87,.T.);
#32=FACE_BOUND('',#88,.T.);
#33=FACE_BOUND('',#89,.T.);
#34=FACE_BOUND('',#90,.T.);
#35=FACE_BOUND('',#91,.T.);
#36=FACE_BOUND('',#92,.T.);
#37=FACE_BOUND('',#93,.T.);
#38=FACE_BOUND('',#94,.T.);
#39=FACE_BOUND('',#95,.T.);
#40=FACE_BOUND('',#97,.T.);
#41=FACE_BOUND('',#98,.T.);
#42=FACE_BOUND('',#99,.T.);
#43=FACE_BOUND('',#100,.T.);
#44=FACE_BOUND('',#101,.T.);
#45=FACE_BOUND('',#102,.T.);
#46=FACE_BOUND('',#103,.T.);
#47=FACE_BOUND('',#104,.T.);
#48=FACE_BOUND('',#105,.T.);
#49=FACE_BOUND('',#106,.T.);
#50=FACE_OUTER_BOUND('',#63,.T.);
#51=FACE_OUTER_BOUND('',#65,.T.);
#52=FACE_OUTER_BOUND('',#67,.T.);
#53=FACE_OUTER_BOUND('',#69,.T.);
#54=FACE_OUTER_BOUND('',#71,.T.);
#55=FACE_OUTER_BOUND('',#73,.T.);
#56=FACE_OUTER_BOUND('',#75,.T.);
#57=FACE_OUTER_BOUND('',#77,.T.);
#58=FACE_OUTER_BOUND('',#79,.T.);
#59=FACE_OUTER_BOUND('',#81,.T.);
#60=FACE_OUTER_BOUND('',#83,.T.);
#61=FACE_OUTER_BOUND('',#85,.T.);
#62=FACE_OUTER_BOUND('',#96,.T.);
#63=EDGE_LOOP('',(#173));
#64=EDGE_LOOP('',(#174));
#65=EDGE_LOOP('',(#175));
#66=EDGE_LOOP('',(#176));
#67=EDGE_LOOP('',(#177));
#68=EDGE_LOOP('',(#178));
#69=EDGE_LOOP('',(#179));
#70=EDGE_LOOP('',(#180));
#71=EDGE_LOOP('',(#181));
#72=EDGE_LOOP('',(#182));
#73=EDGE_LOOP('',(#183));
#74=EDGE_LOOP('',(#184));
#75=EDGE_LOOP('',(#185));
#76=EDGE_LOOP('',(#186));
#77=EDGE_LOOP('',(#187));
#78=EDGE_LOOP('',(#188));
#79=EDGE_LOOP('',(#189));
#80=EDGE_LOOP('',(#190));
#81=EDGE_LOOP('',(#191));
#82=EDGE_LOOP('',(#192));
#83=EDGE_LOOP('',(#193));
#84=EDGE_LOOP('',(#194));
#85=EDGE_LOOP('',(#195));
#86=EDGE_LOOP('',(#196));
#87=EDGE_LOOP('',(#197));
#88=EDGE_LOOP('',(#198));
#89=EDGE_LOOP('',(#199));
#90=EDGE_LOOP('',(#200));
#91=EDGE_LOOP('',(#201));
#92=EDGE_LOOP('',(#202));
#93=EDGE_LOOP('',(#203));
#94=EDGE_LOOP('',(#204));
#95=EDGE_LOOP('',(#205));
#96=EDGE_LOOP('',(#206));
#97=EDGE_LOOP('',(#207));
#98=EDGE_LOOP('',(#208));
#99=EDGE_LOOP('',(#209));
#100=EDGE_LOOP('',(#210));
#101=EDGE_LOOP('',(#211));
#102=EDGE_LOOP('',(#212));
#103=EDGE_LOOP('',(#213));
#104=EDGE_LOOP('',(#214));
#105=EDGE_LOOP('',(#215));
#106=EDGE_LOOP('',(#216));
#107=CIRCLE('',#250,0.03);
#108=CIRCLE('',#251,0.03);
#109=CIRCLE('',#253,0.03);
#110=CIRCLE('',#254,0.03);
#111=CIRCLE('',#256,0.03);
#112=CIRCLE('',#257,0.03);
#113=CIRCLE('',#259,0.03);
#114=CIRCLE('',#260,0.03);
#115=CIRCLE('',#262,0.03);
#116=CIRCLE('',#263,0.03);
#117=CIRCLE('',#265,0.03);
#118=CIRCLE('',#266,0.03);
#119=CIRCLE('',#268,0.03);
#120=CIRCLE('',#269,0.03);
#121=CIRCLE('',#271,0.03);
#122=CIRCLE('',#272,0.03);
#123=CIRCLE('',#274,0.03);
#124=CIRCLE('',#275,0.03);
#125=CIRCLE('',#277,0.03);
#126=CIRCLE('',#278,0.03);
#127=CIRCLE('',#280,0.31);
#128=CIRCLE('',#281,0.31);
#129=VERTEX_POINT('',#358);
#130=VERTEX_POINT('',#360);
#131=VERTEX_POINT('',#363);
#132=VERTEX_POINT('',#365);
#133=VERTEX_POINT('',#368);
#134=VERTEX_POINT('',#370);
#135=VERTEX_POINT('',#373);
#136=VERTEX_POINT('',#375);
#137=VERTEX_POINT('',#378);
#138=VERTEX_POINT('',#380);
#139=VERTEX_POINT('',#383);
#140=VERTEX_POINT('',#385);
#141=VERTEX_POINT('',#388);
#142=VERTEX_POINT('',#390);
#143=VERTEX_POINT('',#393);
#144=VERTEX_POINT('',#395);
#145=VERTEX_POINT('',#398);
#146=VERTEX_POINT('',#400);
#147=VERTEX_POINT('',#403);
#148=VERTEX_POINT('',#405);
#149=VERTEX_POINT('',#408);
#150=VERTEX_POINT('',#410);
#151=EDGE_CURVE('',#129,#129,#107,.T.);
#152=EDGE_CURVE('',#130,#130,#108,.T.);
#153=EDGE_CURVE('',#131,#131,#109,.T.);
#154=EDGE_CURVE('',#132,#132,#110,.T.);
#155=EDGE_CURVE('',#133,#133,#111,.T.);
#156=EDGE_CURVE('',#134,#134,#112,.T.);
#157=EDGE_CURVE('',#135,#135,#113,.T.);
#158=EDGE_CURVE('',#136,#136,#114,.T.);
#159=EDGE_CURVE('',#137,#137,#115,.T.);
#160=EDGE_CURVE('',#138,#138,#116,.T.);
#161=EDGE_CURVE('',#139,#139,#117,.T.);
#162=EDGE_CURVE('',#140,#140,#118,.T.);
#163=EDGE_CURVE('',#141,#141,#119,.T.);
#164=EDGE_CURVE('',#142,#142,#120,.T.);
#165=EDGE_CURVE('',#143,#143,#121,.T.);
#166=EDGE_CURVE('',#144,#144,#122,.T.);
#167=EDGE_CURVE('',#145,#145,#123,.T.);
#168=EDGE_CURVE('',#146,#146,#124,.T.);
#169=EDGE_CURVE('',#147,#147,#125,.T.);
#170=EDGE_CURVE('',#148,#148,#126,.T.);
#171=EDGE_CURVE('',#149,#149,#127,.T.);
#172=EDGE_CURVE('',#150,#150,#128,.T.);
#173=ORIENTED_EDGE('',*,*,#151,.F.);
#174=ORIENTED_EDGE('',*,*,#152,.T.);
#175=ORIENTED_EDGE('',*,*,#153,.F.);
#176=ORIENTED_EDGE('',*,*,#154,.T.);
#177=ORIENTED_EDGE('',*,*,#155,.F.);
#178=ORIENTED_EDGE('',*,*,#156,.T.);
#179=ORIENTED_EDGE('',*,*,#157,.F.);
#180=ORIENTED_EDGE('',*,*,#158,.T.);
#181=ORIENTED_EDGE('',*,*,#159,.F.);
#182=ORIENTED_EDGE('',*,*,#160,.T.);
#183=ORIENTED_EDGE('',*,*,#161,.F.);
#184=ORIENTED_EDGE('',*,*,#162,.T.);
#185=ORIENTED_EDGE('',*,*,#163,.F.);
#186=ORIENTED_EDGE('',*,*,#164,.T.);
#187=ORIENTED_EDGE('',*,*,#165,.F.);
#188=ORIENTED_EDGE('',*,*,#166,.T.);
#189=ORIENTED_EDGE('',*,*,#167,.F.);
#190=ORIENTED_EDGE('',*,*,#168,.T.);
#191=ORIENTED_EDGE('',*,*,#169,.F.);
#192=ORIENTED_EDGE('',*,*,#170,.T.);
#193=ORIENTED_EDGE('',*,*,#171,.F.);
#194=ORIENTED_EDGE('',*,*,#172,.T.);
#195=ORIENTED_EDGE('',*,*,#171,.T.);
#196=ORIENTED_EDGE('',*,*,#152,.F.);
#197=ORIENTED_EDGE('',*,*,#154,.F.);
#198=ORIENTED_EDGE('',*,*,#156,.F.);
#199=ORIENTED_EDGE('',*,*,#158,.F.);
#200=ORIENTED_EDGE('',*,*,#160,.F.);
#201=ORIENTED_EDGE('',*,*,#162,.F.);
#202=ORIENTED_EDGE('',*,*,#164,.F.);
#203=ORIENTED_EDGE('',*,*,#166,.F.);
#204=ORIENTED_EDGE('',*,*,#168,.F.);
#205=ORIENTED_EDGE('',*,*,#170,.F.);
#206=ORIENTED_EDGE('',*,*,#172,.F.);
#207=ORIENTED_EDGE('',*,*,#151,.T.);
#208=ORIENTED_EDGE('',*,*,#153,.T.);
#209=ORIENTED_EDGE('',*,*,#155,.T.);
#210=ORIENTED_EDGE('',*,*,#157,.T.);
#211=ORIENTED_EDGE('',*,*,#159,.T.);
#212=ORIENTED_EDGE('',*,*,#161,.T.);
#213=ORIENTED_EDGE('',*,*,#163,.T.);
#214=ORIENTED_EDGE('',*,*,#165,.T.);
#215=ORIENTED_EDGE('',*,*,#167,.T.);
#216=ORIENTED_EDGE('',*,*,#169,.T.);
#217=CYLINDRICAL_SURFACE('',#249,0.03);
#218=CYLINDRICAL_SURFACE('',#252,0.03);
#219=CYLINDRICAL_SURFACE('',#255,0.03);
#220=CYLINDRICAL_SURFACE('',#258,0.03);
#221=CYLINDRICAL_SURFACE('',#261,0.03);
#222=CYLINDRICAL_SURFACE('',#264,0.03);
#223=CYLINDRICAL_SURFACE('',#267,0.03);
#224=CYLINDRICAL_SURFACE('',#270,0.03);
#225=CYLINDRICAL_SURFACE('',#273,0.03);
#226=CYLINDRICAL_SURFACE('',#276,0.03);
#227=CYLINDRICAL_SURFACE('',#279,0.31);
#228=ADVANCED_FACE('',(#50,#19),#217,.F.);
#229=ADVANCED_FACE('',(#51,#20),#218,.F.);
#230=ADVANCED_FACE('',(#52,#21),#219,.F.);
#231=ADVANCED_FACE('',(#53,#22),#220,.F.);
#232=ADVANCED_FACE('',(#54,#23),#221,.F.);
#233=ADVANCED_FACE('',(#55,#24),#222,.F.);
#234=ADVANCED_FACE('',(#56,#25),#223,.F.);
#235=ADVANCED_FACE('',(#57,#26),#224,.F.);
#236=ADVANCED_FACE('',(#58,#27),#225,.F.);
#237=ADVANCED_FACE('',(#59,#28),#226,.F.);
#238=ADVANCED_FACE('',(#60,#29),#227,.T.);
#239=ADVANCED_FACE('',(#61,#30,#31,#32,#33,#34,#35,#36,#37,#38,#39),#17,
 .T.);
#240=ADVANCED_FACE('',(#62,#40,#41,#42,#43,#44,#45,#46,#47,#48,#49),#18,
 .F.);
#241=CLOSED_SHELL('',(#228,#229,#230,#231,#232,#233,#234,#235,#236,#237,
#238,#239,#240));
#242=DATE_TIME_ROLE('creation_date');
#243=APPLIED_DATE_AND_TIME_ASSIGNMENT(#244,#242,(#429));
#244=DATE_AND_TIME(#245,#246);
#245=CALENDAR_DATE(2013,12,11);
#246=LOCAL_TIME(13,55,33.,#247);
#247=COORDINATED_UNIVERSAL_TIME_OFFSET(0,0,.BEHIND.);
#248=AXIS2_PLACEMENT_3D('placement',#356,#284,#285);
#249=AXIS2_PLACEMENT_3D('',#357,#286,#287);
#250=AXIS2_PLACEMENT_3D('',#359,#288,#289);
#251=AXIS2_PLACEMENT_3D('',#361,#290,#291);
#252=AXIS2_PLACEMENT_3D('',#362,#292,#293);
#253=AXIS2_PLACEMENT_3D('',#364,#294,#295);
#254=AXIS2_PLACEMENT_3D('',#366,#296,#297);
#255=AXIS2_PLACEMENT_3D('',#367,#298,#299);
#256=AXIS2_PLACEMENT_3D('',#369,#300,#301);
#257=AXIS2_PLACEMENT_3D('',#371,#302,#303);
#258=AXIS2_PLACEMENT_3D('',#372,#304,#305);
#259=AXIS2_PLACEMENT_3D('',#374,#306,#307);
#260=AXIS2_PLACEMENT_3D('',#376,#308,#309);
#261=AXIS2_PLACEMENT_3D('',#377,#310,#311);
#262=AXIS2_PLACEMENT_3D('',#379,#312,#313);
#263=AXIS2_PLACEMENT_3D('',#381,#314,#315);
#264=AXIS2_PLACEMENT_3D('',#382,#316,#317);
#265=AXIS2_PLACEMENT_3D('',#384,#318,#319);
#266=AXIS2_PLACEMENT_3D('',#386,#320,#321);
#267=AXIS2_PLACEMENT_3D('',#387,#322,#323);
#268=AXIS2_PLACEMENT_3D('',#389,#324,#325);
#269=AXIS2_PLACEMENT_3D('',#391,#326,#327);
#270=AXIS2_PLACEMENT_3D('',#392,#328,#329);
#271=AXIS2_PLACEMENT_3D('',#394,#330,#331);
#272=AXIS2_PLACEMENT_3D('',#396,#332,#333);
#273=AXIS2_PLACEMENT_3D('',#397,#334,#335);
#274=AXIS2_PLACEMENT_3D('',#399,#336,#337);
#275=AXIS2_PLACEMENT_3D('',#401,#338,#339);
#276=AXIS2_PLACEMENT_3D('',#402,#340,#341);
#277=AXIS2_PLACEMENT_3D('',#404,#342,#343);
#278=AXIS2_PLACEMENT_3D('',#406,#344,#345);
#279=AXIS2_PLACEMENT_3D('',#407,#346,#347);
#280=AXIS2_PLACEMENT_3D('',#409,#348,#349);
#281=AXIS2_PLACEMENT_3D('',#411,#350,#351);
#282=AXIS2_PLACEMENT_3D('',#412,#352,#353);
#283=AXIS2_PLACEMENT_3D('',#413,#354,#355);
#284=DIRECTION('axis',(0.,0.,1.));
#285=DIRECTION('refdir',(1.,0.,0.));
#286=DIRECTION('center_axis',(2.46519032881566E-32,-2.46519032881565E-32,
1.));
#287=DIRECTION('ref_axis',(1.,1.21543267145725E-63,-2.46519032881566E-32));
#288=DIRECTION('center_axis',(2.46519032881566E-32,-2.46519032881565E-32,
1.));
#289=DIRECTION('ref_axis',(1.,1.21543267145725E-63,-2.46519032881566E-32));
#290=DIRECTION('center_axis',(2.46519032881566E-32,-2.46519032881565E-32,
1.));
#291=DIRECTION('ref_axis',(1.,6.07716335728624E-64,-2.46519032881566E-32));
#292=DIRECTION('center_axis',(2.46519032881566E-32,-2.46519032881565E-32,
1.));
#293=DIRECTION('ref_axis',(1.,1.21543267145725E-63,-2.46519032881566E-32));
#294=DIRECTION('center_axis',(2.46519032881566E-32,-2.46519032881565E-32,
1.));
#295=DIRECTION('ref_axis',(1.,1.21543267145725E-63,-2.46519032881566E-32));
#296=DIRECTION('center_axis',(2.46519032881566E-32,-2.46519032881565E-32,
1.));
#297=DIRECTION('ref_axis',(1.,6.07716335728624E-64,-2.46519032881566E-32));
#298=DIRECTION('center_axis',(2.46519032881566E-32,-2.46519032881565E-32,
1.));
#299=DIRECTION('ref_axis',(1.,1.21543267145725E-63,-2.46519032881566E-32));
#300=DIRECTION('center_axis',(2.46519032881566E-32,-2.46519032881565E-32,
1.));
#301=DIRECTION('ref_axis',(1.,1.21543267145725E-63,-2.46519032881566E-32));
#302=DIRECTION('center_axis',(2.46519032881566E-32,-2.46519032881565E-32,
1.));
#303=DIRECTION('ref_axis',(1.,6.07716335728624E-64,-2.46519032881566E-32));
#304=DIRECTION('center_axis',(2.46519032881566E-32,-2.46519032881565E-32,
1.));
#305=DIRECTION('ref_axis',(1.,1.21543267145725E-63,-2.46519032881566E-32));
#306=DIRECTION('center_axis',(2.46519032881566E-32,-2.46519032881565E-32,
1.));
#307=DIRECTION('ref_axis',(1.,1.21543267145725E-63,-2.46519032881566E-32));
#308=DIRECTION('center_axis',(2.46519032881566E-32,-2.46519032881565E-32,
1.));
#309=DIRECTION('ref_axis',(1.,6.07716335728624E-64,-2.46519032881566E-32));
#310=DIRECTION('center_axis',(2.46519032881566E-32,-2.46519032881565E-32,
1.));
#311=DIRECTION('ref_axis',(1.,1.21543267145725E-63,-2.46519032881566E-32));
#312=DIRECTION('center_axis',(2.46519032881566E-32,-2.46519032881565E-32,
1.));
#313=DIRECTION('ref_axis',(1.,1.21543267145725E-63,-2.46519032881566E-32));
#314=DIRECTION('center_axis',(2.46519032881566E-32,-2.46519032881565E-32,
1.));
#315=DIRECTION('ref_axis',(1.,6.07716335728624E-64,-2.46519032881566E-32));
#316=DIRECTION('center_axis',(2.46519032881566E-32,-2.46519032881565E-32,
1.));
#317=DIRECTION('ref_axis',(1.,1.21543267145725E-63,-2.46519032881566E-32));
#318=DIRECTION('center_axis',(2.46519032881566E-32,-2.46519032881565E-32,
1.));
#319=DIRECTION('ref_axis',(1.,1.21543267145725E-63,-2.46519032881566E-32));
#320=DIRECTION('center_axis',(2.46519032881566E-32,-2.46519032881565E-32,
1.));
#321=DIRECTION('ref_axis',(1.,6.07716335728624E-64,-2.46519032881566E-32));
#322=DIRECTION('center_axis',(2.46519032881566E-32,-2.46519032881565E-32,
1.));
#323=DIRECTION('ref_axis',(1.,1.21543267145725E-63,-2.46519032881566E-32));
#324=DIRECTION('center_axis',(2.46519032881566E-32,-2.46519032881565E-32,
1.));
#325=DIRECTION('ref_axis',(1.,1.21543267145725E-63,-2.46519032881566E-32));
#326=DIRECTION('center_axis',(2.46519032881566E-32,-2.46519032881565E-32,
1.));
#327=DIRECTION('ref_axis',(1.,6.07716335728624E-64,-2.46519032881566E-32));
#328=DIRECTION('center_axis',(2.46519032881566E-32,-2.46519032881565E-32,
1.));
#329=DIRECTION('ref_axis',(1.,1.21543267145725E-63,-2.46519032881566E-32));
#330=DIRECTION('center_axis',(2.46519032881566E-32,-2.46519032881565E-32,
1.));
#331=DIRECTION('ref_axis',(1.,1.21543267145725E-63,-2.46519032881566E-32));
#332=DIRECTION('center_axis',(2.46519032881566E-32,-2.46519032881565E-32,
1.));
#333=DIRECTION('ref_axis',(1.,6.07716335728624E-64,-2.46519032881566E-32));
#334=DIRECTION('center_axis',(2.46519032881566E-32,-2.46519032881565E-32,
1.));
#335=DIRECTION('ref_axis',(1.,1.21543267145725E-63,-2.46519032881566E-32));
#336=DIRECTION('center_axis',(2.46519032881566E-32,-2.46519032881565E-32,
1.));
#337=DIRECTION('ref_axis',(1.,1.21543267145725E-63,-2.46519032881566E-32));
#338=DIRECTION('center_axis',(2.46519032881566E-32,-2.46519032881565E-32,
1.));
#339=DIRECTION('ref_axis',(1.,6.07716335728624E-64,-2.46519032881566E-32));
#340=DIRECTION('center_axis',(2.46519032881566E-32,-2.46519032881565E-32,
1.));
#341=DIRECTION('ref_axis',(1.,1.21543267145725E-63,-2.46519032881566E-32));
#342=DIRECTION('center_axis',(2.46519032881566E-32,-2.46519032881565E-32,
1.));
#343=DIRECTION('ref_axis',(1.,1.21543267145725E-63,-2.46519032881566E-32));
#344=DIRECTION('center_axis',(2.46519032881566E-32,-2.46519032881565E-32,
1.));
#345=DIRECTION('ref_axis',(1.,6.07716335728624E-64,-2.46519032881566E-32));
#346=DIRECTION('center_axis',(-2.46519032881566E-32,2.46519032881565E-32,
-1.));
#347=DIRECTION('ref_axis',(-1.,-6.07716335728624E-64,2.46519032881566E-32));
#348=DIRECTION('center_axis',(2.46519032881566E-32,-2.46519032881565E-32,
1.));
#349=DIRECTION('ref_axis',(1.,6.07716335728624E-64,-2.46519032881566E-32));
#350=DIRECTION('center_axis',(2.46519032881566E-32,-2.46519032881565E-32,
1.));
#351=DIRECTION('ref_axis',(1.,1.21543267145725E-63,-2.46519032881566E-32));
#352=DIRECTION('center_axis',(-2.46519032881566E-32,-2.46519032881565E-32,
1.));
#353=DIRECTION('ref_axis',(1.,0.,0.));
#354=DIRECTION('center_axis',(-2.46519032881566E-32,-2.46519032881565E-32,
1.));
#355=DIRECTION('ref_axis',(1.,0.,2.46519032881566E-32));
#356=CARTESIAN_POINT('',(0.,0.,0.));
#357=CARTESIAN_POINT('Origin',(-0.0877685555885726,-0.036354926074683,0.));
#358=CARTESIAN_POINT('',(-0.0577685555885726,-0.036354926074683,7.39557098644697E-34));
#359=CARTESIAN_POINT('Origin',(-0.0877685555885726,-0.036354926074683,0.));
#360=CARTESIAN_POINT('',(-0.0577685555885725,-0.036354926074683,0.0400000000000001));
#361=CARTESIAN_POINT('Origin',(-0.0877685555885725,-0.036354926074683,0.0400000000000001));
#362=CARTESIAN_POINT('Origin',(0.178544462249602,0.178544462249604,0.));
#363=CARTESIAN_POINT('',(0.208544462249602,0.178544462249604,7.39557098644697E-34));
#364=CARTESIAN_POINT('Origin',(0.178544462249602,0.178544462249604,0.));
#365=CARTESIAN_POINT('',(0.208544462249602,0.178544462249604,0.0400000000000001));
#366=CARTESIAN_POINT('Origin',(0.178544462249602,0.178544462249604,0.0400000000000001));
#367=CARTESIAN_POINT('Origin',(-4.46330499244902E-16,0.2525,0.));
#368=CARTESIAN_POINT('',(0.0299999999999995,0.2525,7.39557098644697E-34));
#369=CARTESIAN_POINT('Origin',(-4.46330499244902E-16,0.2525,0.));
#370=CARTESIAN_POINT('',(0.0299999999999995,0.2525,0.0400000000000001));
#371=CARTESIAN_POINT('Origin',(-4.46330499244902E-16,0.2525,0.0400000000000001));
#372=CARTESIAN_POINT('Origin',(-0.178544462249605,0.178544462249603,0.));
#373=CARTESIAN_POINT('',(-0.148544462249605,0.178544462249603,7.39557098644697E-34));
#374=CARTESIAN_POINT('Origin',(-0.178544462249605,0.178544462249603,0.));
#375=CARTESIAN_POINT('',(-0.148544462249605,0.178544462249603,0.0400000000000001));
#376=CARTESIAN_POINT('Origin',(-0.178544462249605,0.178544462249603,0.0400000000000001));
#377=CARTESIAN_POINT('Origin',(-0.252500000000003,-1.2721084879069E-15,
0.));
#378=CARTESIAN_POINT('',(-0.222500000000003,-1.2721084879069E-15,7.39557098644697E-34));
#379=CARTESIAN_POINT('Origin',(-0.252500000000003,-1.2721084879069E-15,
0.));
#380=CARTESIAN_POINT('',(-0.222500000000003,-1.2721084879069E-15,0.0400000000000001));
#381=CARTESIAN_POINT('Origin',(-0.252500000000003,-1.2721084879069E-15,
0.0400000000000001));
#382=CARTESIAN_POINT('Origin',(-0.178544462249604,-0.178544462249606,0.));
#383=CARTESIAN_POINT('',(-0.148544462249604,-0.178544462249606,7.39557098644696E-34));
#384=CARTESIAN_POINT('Origin',(-0.178544462249604,-0.178544462249606,0.));
#385=CARTESIAN_POINT('',(-0.148544462249605,-0.178544462249606,0.0400000000000001));
#386=CARTESIAN_POINT('Origin',(-0.178544462249604,-0.178544462249606,0.0400000000000001));
#387=CARTESIAN_POINT('Origin',(-2.40520027445916E-18,-0.252500000000002,
0.));
#388=CARTESIAN_POINT('',(0.03,-0.252500000000002,7.39557098644697E-34));
#389=CARTESIAN_POINT('Origin',(-2.40520027445916E-18,-0.252500000000002,
0.));
#390=CARTESIAN_POINT('',(0.03,-0.252500000000002,0.0400000000000001));
#391=CARTESIAN_POINT('Origin',(-2.40520027445916E-18,-0.252500000000002,
0.0400000000000001));
#392=CARTESIAN_POINT('Origin',(0.178544462249604,-0.178544462249604,0.));
#393=CARTESIAN_POINT('',(0.208544462249604,-0.178544462249604,7.39557098644697E-34));
#394=CARTESIAN_POINT('Origin',(0.178544462249604,-0.178544462249604,0.));
#395=CARTESIAN_POINT('',(0.208544462249604,-0.178544462249604,0.0400000000000001));
#396=CARTESIAN_POINT('Origin',(0.178544462249604,-0.178544462249604,0.0400000000000001));
#397=CARTESIAN_POINT('Origin',(0.0877685555885722,0.0363549260746836,0.));
#398=CARTESIAN_POINT('',(0.117768555588572,0.0363549260746836,7.39557098644697E-34));
#399=CARTESIAN_POINT('Origin',(0.0877685555885722,0.0363549260746836,0.));
#400=CARTESIAN_POINT('',(0.117768555588572,0.0363549260746836,0.0400000000000001));
#401=CARTESIAN_POINT('Origin',(0.0877685555885722,0.0363549260746836,0.0400000000000001));
#402=CARTESIAN_POINT('Origin',(0.2525,1.10889558885633E-16,0.));
#403=CARTESIAN_POINT('',(0.2825,1.10889558885633E-16,7.39557098644697E-34));
#404=CARTESIAN_POINT('Origin',(0.2525,1.10889558885633E-16,0.));
#405=CARTESIAN_POINT('',(0.2825,1.10889558885633E-16,0.0400000000000001));
#406=CARTESIAN_POINT('Origin',(0.2525,1.10889558885633E-16,0.0400000000000001));
#407=CARTESIAN_POINT('Origin',(3.0329605423421E-32,4.26851249010041E-18,
0.0400000000000001));
#408=CARTESIAN_POINT('',(-0.31,4.26851249010041E-18,0.0400000000000001));
#409=CARTESIAN_POINT('Origin',(3.0329605423421E-32,4.26851249010041E-18,
0.0400000000000001));
#410=CARTESIAN_POINT('',(-0.31,4.26851249010041E-18,1.13736020337829E-32));
#411=CARTESIAN_POINT('Origin',(0.,0.,0.));
#412=CARTESIAN_POINT('Origin',(3.0329605423421E-32,4.26851249010041E-18,
0.0400000000000001));
#413=CARTESIAN_POINT('Origin',(0.,0.,0.));
#414=UNCERTAINTY_MEASURE_WITH_UNIT(LENGTH_MEASURE(0.000393700787401575),
#420,'DISTANCE_ACCURACY_VALUE',
'Maximum model space distance between geometric entities at asserted c
onnectivities');
#415=UNCERTAINTY_MEASURE_WITH_UNIT(LENGTH_MEASURE(1.E-6),#421,
'DISTANCE_ACCURACY_VALUE',
'Maximum model space distance between geometric entities at asserted c
onnectivities');
#416=(
GEOMETRIC_REPRESENTATION_CONTEXT(3)
GLOBAL_UNCERTAINTY_ASSIGNED_CONTEXT((#414))
GLOBAL_UNIT_ASSIGNED_CONTEXT((#420,#424,#423))
REPRESENTATION_CONTEXT('','3D')
);
#417=(
GEOMETRIC_REPRESENTATION_CONTEXT(3)
GLOBAL_UNCERTAINTY_ASSIGNED_CONTEXT((#415))
GLOBAL_UNIT_ASSIGNED_CONTEXT((#421,#11,#423))
REPRESENTATION_CONTEXT('','3D')
);
#418=DIMENSIONAL_EXPONENTS(1.,0.,0.,0.,0.,0.,0.);
#419=DIMENSIONAL_EXPONENTS(0.,0.,0.,0.,0.,0.,0.);
#420=(
CONVERSION_BASED_UNIT('__CONSTANT UNIT inch',#422)
LENGTH_UNIT()
NAMED_UNIT(#418)
);
#421=(
LENGTH_UNIT()
NAMED_UNIT(*)
SI_UNIT(.MILLI.,.METRE.)
);
#422=LENGTH_MEASURE_WITH_UNIT(LENGTH_MEASURE(25.4),#421);
#423=(
NAMED_UNIT(*)
SI_UNIT($,.STERADIAN.)
SOLID_ANGLE_UNIT()
);
#424=(
NAMED_UNIT(*)
PLANE_ANGLE_UNIT()
SI_UNIT($,.RADIAN.)
);
#425=SHAPE_DEFINITION_REPRESENTATION(#426,#427);
#426=PRODUCT_DEFINITION_SHAPE('',$,#429);
#427=SHAPE_REPRESENTATION('',(#248),#416);
#428=PRODUCT_DEFINITION_CONTEXT('part definition',#433,'design');
#429=PRODUCT_DEFINITION('A8449-1-C','A8449-1-C',#430,#428);
#430=PRODUCT_DEFINITION_FORMATION('ANY',$,#435);
#431=PRODUCT_RELATED_PRODUCT_CATEGORY('A8449-1-C','A8449-1-C',(#435));
#432=APPLICATION_PROTOCOL_DEFINITION('international standard',
'automotive_design',2009,#433);
#433=APPLICATION_CONTEXT(
'Core Data for Automotive Mechanical Design Process');
#434=PRODUCT_CONTEXT('part definition',#433,'mechanical');
#435=PRODUCT('A8449-1-C','A8449-1-C','STEP AP203',(#434));
#436=PRESENTATION_STYLE_ASSIGNMENT((#437));
#437=SURFACE_STYLE_USAGE(.BOTH.,#438);
#438=SURFACE_SIDE_STYLE('',(#439));
#439=SURFACE_STYLE_FILL_AREA(#440);
#440=FILL_AREA_STYLE('',(#441));
#441=FILL_AREA_STYLE_COLOUR('',#442);
#442=COLOUR_RGB('',0.749019607843137,0.749019607843137,0.749019607843137);
ENDSEC;
END-ISO-10303-21;
