ISO-10303-21;
HEADER;
/* Generated by software containing ST-Developer
 * from STEP Tools, Inc. (www.steptools.com) 
 */

FILE_DESCRIPTION(
/* description */ (''),
/* implementation_level */ '2;1');

FILE_NAME(
/* name */ 'G:\\ACCESSORIES\\Ceramic Parts\\Step Files\\CBI-ST-8.5-10.
stp',
/* time_stamp */ '2018-10-02T15:39:20+01:00',
/* author */ ('paul'),
/* organization */ (''),
/* preprocessor_version */ 'ST-DEVELOPER v17.2',
/* originating_system */ 'Autodesk Inventor 2019',
/* authorisation */ '');

FILE_SCHEMA (('AUTOMOTIVE_DESIGN { 1 0 10303 214 3 1 1 }'));
ENDSEC;

DATA;
#10=MECHANICAL_DESIGN_GEOMETRIC_PRESENTATION_REPRESENTATION('',(#13),#461);
#11=SHAPE_REPRESENTATION_RELATIONSHIP('SRR','None',#468,#12);
#12=ADVANCED_BREP_SHAPE_REPRESENTATION('',(#14),#460);
#13=STYLED_ITEM('',(#477),#14);
#14=MANIFOLD_SOLID_BREP('Solid1',#211);
#15=CYLINDRICAL_SURFACE('',#251,8.25);
#16=CYLINDRICAL_SURFACE('',#261,4.25);
#17=FACE_BOUND('',#51,.T.);
#18=FACE_BOUND('',#57,.T.);
#19=FACE_BOUND('',#59,.T.);
#20=PLANE('',#248);
#21=PLANE('',#264);
#22=PLANE('',#265);
#23=LINE('',#389,#27);
#24=LINE('',#399,#28);
#25=LINE('',#411,#29);
#26=LINE('',#452,#30);
#27=VECTOR('',#290,4.75);
#28=VECTOR('',#301,8.15);
#29=VECTOR('',#316,8.25);
#30=VECTOR('',#333,4.25);
#31=CONICAL_SURFACE('',#241,4.75,0.157416872726591);
#32=CONICAL_SURFACE('',#244,8.15,0.785398163397448);
#33=(
BOUNDED_SURFACE()
B_SPLINE_SURFACE(2,2,((#355,#356,#357,#358,#359,#360,#361,#362,#363),(#364,
#365,#366,#367,#368,#369,#370,#371,#372),(#373,#374,#375,#376,#377,#378,
#379,#380,#381)),.UNSPECIFIED.,.F.,.T.,.F.)
B_SPLINE_SURFACE_WITH_KNOTS((3,3),(3,2,2,2,3),(-0.869336590177767,-0.564081131290083),
(-3.14159265358979,-1.5707963267949,0.,1.5707963267949,3.14159265358979),
 .UNSPECIFIED.)
GEOMETRIC_REPRESENTATION_ITEM()
RATIONAL_B_SPLINE_SURFACE(((1.,0.707106781186548,1.,0.707106781186548,1.,
0.707106781186548,1.,0.707106781186548,1.),(0.988374981695798,0.698886651912228,
0.988374981695798,0.698886651912228,0.988374981695798,0.698886651912228,
0.988374981695798,0.698886651912228,0.988374981695798),(1.,0.707106781186548,
1.,0.707106781186548,1.,0.707106781186548,1.,0.707106781186548,1.)))
REPRESENTATION_ITEM('')
SURFACE()
);
#34=(
BOUNDED_SURFACE()
B_SPLINE_SURFACE(2,2,((#418,#419,#420,#421,#422,#423,#424,#425,#426),(#427,
#428,#429,#430,#431,#432,#433,#434,#435),(#436,#437,#438,#439,#440,#441,
#442,#443,#444)),.UNSPECIFIED.,.F.,.T.,.F.)
B_SPLINE_SURFACE_WITH_KNOTS((3,3),(3,2,2,2,3),(-0.981446091806943,-0.449838747565547),
(-3.14159265358979,-1.5707963267949,0.,1.5707963267949,3.14159265358979),
 .UNSPECIFIED.)
GEOMETRIC_REPRESENTATION_ITEM()
RATIONAL_B_SPLINE_SURFACE(((1.,0.707106781186548,1.,0.707106781186548,1.,
0.707106781186548,1.,0.707106781186548,1.),(0.964881700055782,0.682274393152248,
0.964881700055782,0.682274393152248,0.964881700055782,0.682274393152248,
0.964881700055782,0.682274393152248,0.964881700055782),(1.,0.707106781186548,
1.,0.707106781186548,1.,0.707106781186548,1.,0.707106781186548,1.)))
REPRESENTATION_ITEM('')
SURFACE()
);
#35=FACE_OUTER_BOUND('',#46,.T.);
#36=FACE_OUTER_BOUND('',#47,.T.);
#37=FACE_OUTER_BOUND('',#48,.T.);
#38=FACE_OUTER_BOUND('',#49,.T.);
#39=FACE_OUTER_BOUND('',#50,.T.);
#40=FACE_OUTER_BOUND('',#52,.T.);
#41=FACE_OUTER_BOUND('',#53,.T.);
#42=FACE_OUTER_BOUND('',#54,.T.);
#43=FACE_OUTER_BOUND('',#55,.T.);
#44=FACE_OUTER_BOUND('',#56,.T.);
#45=FACE_OUTER_BOUND('',#58,.T.);
#46=EDGE_LOOP('',(#138,#139,#140,#141,#142,#143,#144));
#47=EDGE_LOOP('',(#145,#146,#147,#148,#149,#150));
#48=EDGE_LOOP('',(#151,#152,#153,#154,#155,#156,#157));
#49=EDGE_LOOP('',(#158,#159,#160,#161,#162));
#50=EDGE_LOOP('',(#163));
#51=EDGE_LOOP('',(#164,#165));
#52=EDGE_LOOP('',(#166,#167,#168,#169,#170,#171));
#53=EDGE_LOOP('',(#172,#173,#174,#175,#176,#177));
#54=EDGE_LOOP('',(#178,#179,#180,#181,#182,#183));
#55=EDGE_LOOP('',(#184,#185,#186,#187,#188,#189));
#56=EDGE_LOOP('',(#190,#191));
#57=EDGE_LOOP('',(#192,#193));
#58=EDGE_LOOP('',(#194,#195));
#59=EDGE_LOOP('',(#196,#197));
#60=CIRCLE('',#232,5.18987587284435);
#61=CIRCLE('',#233,5.18987587284435);
#62=CIRCLE('',#234,1.);
#63=CIRCLE('',#235,5.5321779326799);
#64=CIRCLE('',#236,5.5321779326799);
#65=CIRCLE('',#237,5.18987587284435);
#66=CIRCLE('',#238,7.25);
#67=CIRCLE('',#239,8.6);
#68=CIRCLE('',#240,7.25);
#69=CIRCLE('',#242,4.25);
#70=CIRCLE('',#243,4.25);
#71=CIRCLE('',#245,8.25);
#72=CIRCLE('',#246,8.25);
#73=CIRCLE('',#247,8.05);
#74=CIRCLE('',#249,7.91560358977945);
#75=CIRCLE('',#250,7.91560358977945);
#76=CIRCLE('',#252,8.25);
#77=CIRCLE('',#253,8.25);
#78=CIRCLE('',#255,7.64544842081041);
#79=CIRCLE('',#256,0.3);
#80=CIRCLE('',#257,7.64544842081041);
#81=CIRCLE('',#258,8.4);
#82=CIRCLE('',#259,4.74999999999999);
#83=CIRCLE('',#260,4.74999999999999);
#84=CIRCLE('',#262,4.25);
#85=CIRCLE('',#263,4.25);
#86=VERTEX_POINT('',#344);
#87=VERTEX_POINT('',#345);
#88=VERTEX_POINT('',#347);
#89=VERTEX_POINT('',#349);
#90=VERTEX_POINT('',#351);
#91=VERTEX_POINT('',#382);
#92=VERTEX_POINT('',#383);
#93=VERTEX_POINT('',#388);
#94=VERTEX_POINT('',#390);
#95=VERTEX_POINT('',#394);
#96=VERTEX_POINT('',#395);
#97=VERTEX_POINT('',#398);
#98=VERTEX_POINT('',#402);
#99=VERTEX_POINT('',#403);
#100=VERTEX_POINT('',#407);
#101=VERTEX_POINT('',#408);
#102=VERTEX_POINT('',#413);
#103=VERTEX_POINT('',#414);
#104=VERTEX_POINT('',#445);
#105=VERTEX_POINT('',#447);
#106=VERTEX_POINT('',#451);
#107=VERTEX_POINT('',#453);
#108=EDGE_CURVE('',#86,#87,#60,.T.);
#109=EDGE_CURVE('',#87,#88,#61,.T.);
#110=EDGE_CURVE('',#88,#89,#62,.T.);
#111=EDGE_CURVE('',#89,#90,#63,.T.);
#112=EDGE_CURVE('',#90,#89,#64,.T.);
#113=EDGE_CURVE('',#88,#86,#65,.T.);
#114=EDGE_CURVE('',#91,#92,#66,.T.);
#115=EDGE_CURVE('',#92,#89,#67,.T.);
#116=EDGE_CURVE('',#92,#91,#68,.T.);
#117=EDGE_CURVE('',#87,#93,#23,.T.);
#118=EDGE_CURVE('',#94,#93,#69,.T.);
#119=EDGE_CURVE('',#93,#94,#70,.T.);
#120=EDGE_CURVE('',#95,#96,#71,.T.);
#121=EDGE_CURVE('',#96,#95,#72,.T.);
#122=EDGE_CURVE('',#95,#97,#24,.T.);
#123=EDGE_CURVE('',#97,#97,#73,.T.);
#124=EDGE_CURVE('',#98,#99,#74,.T.);
#125=EDGE_CURVE('',#99,#98,#75,.T.);
#126=EDGE_CURVE('',#100,#101,#76,.T.);
#127=EDGE_CURVE('',#101,#100,#77,.T.);
#128=EDGE_CURVE('',#101,#96,#25,.T.);
#129=EDGE_CURVE('',#102,#103,#78,.T.);
#130=EDGE_CURVE('',#103,#99,#79,.T.);
#131=EDGE_CURVE('',#103,#102,#80,.T.);
#132=EDGE_CURVE('',#103,#104,#81,.T.);
#133=EDGE_CURVE('',#104,#105,#82,.T.);
#134=EDGE_CURVE('',#105,#104,#83,.T.);
#135=EDGE_CURVE('',#93,#106,#26,.T.);
#136=EDGE_CURVE('',#107,#106,#84,.T.);
#137=EDGE_CURVE('',#106,#107,#85,.T.);
#138=ORIENTED_EDGE('',*,*,#108,.T.);
#139=ORIENTED_EDGE('',*,*,#109,.T.);
#140=ORIENTED_EDGE('',*,*,#110,.T.);
#141=ORIENTED_EDGE('',*,*,#111,.T.);
#142=ORIENTED_EDGE('',*,*,#112,.T.);
#143=ORIENTED_EDGE('',*,*,#110,.F.);
#144=ORIENTED_EDGE('',*,*,#113,.T.);
#145=ORIENTED_EDGE('',*,*,#114,.T.);
#146=ORIENTED_EDGE('',*,*,#115,.T.);
#147=ORIENTED_EDGE('',*,*,#112,.F.);
#148=ORIENTED_EDGE('',*,*,#111,.F.);
#149=ORIENTED_EDGE('',*,*,#115,.F.);
#150=ORIENTED_EDGE('',*,*,#116,.T.);
#151=ORIENTED_EDGE('',*,*,#108,.F.);
#152=ORIENTED_EDGE('',*,*,#113,.F.);
#153=ORIENTED_EDGE('',*,*,#109,.F.);
#154=ORIENTED_EDGE('',*,*,#117,.T.);
#155=ORIENTED_EDGE('',*,*,#118,.F.);
#156=ORIENTED_EDGE('',*,*,#119,.F.);
#157=ORIENTED_EDGE('',*,*,#117,.F.);
#158=ORIENTED_EDGE('',*,*,#120,.T.);
#159=ORIENTED_EDGE('',*,*,#121,.T.);
#160=ORIENTED_EDGE('',*,*,#122,.T.);
#161=ORIENTED_EDGE('',*,*,#123,.T.);
#162=ORIENTED_EDGE('',*,*,#122,.F.);
#163=ORIENTED_EDGE('',*,*,#123,.F.);
#164=ORIENTED_EDGE('',*,*,#124,.F.);
#165=ORIENTED_EDGE('',*,*,#125,.F.);
#166=ORIENTED_EDGE('',*,*,#126,.F.);
#167=ORIENTED_EDGE('',*,*,#127,.F.);
#168=ORIENTED_EDGE('',*,*,#128,.T.);
#169=ORIENTED_EDGE('',*,*,#120,.F.);
#170=ORIENTED_EDGE('',*,*,#121,.F.);
#171=ORIENTED_EDGE('',*,*,#128,.F.);
#172=ORIENTED_EDGE('',*,*,#129,.T.);
#173=ORIENTED_EDGE('',*,*,#130,.T.);
#174=ORIENTED_EDGE('',*,*,#125,.T.);
#175=ORIENTED_EDGE('',*,*,#124,.T.);
#176=ORIENTED_EDGE('',*,*,#130,.F.);
#177=ORIENTED_EDGE('',*,*,#131,.T.);
#178=ORIENTED_EDGE('',*,*,#129,.F.);
#179=ORIENTED_EDGE('',*,*,#131,.F.);
#180=ORIENTED_EDGE('',*,*,#132,.T.);
#181=ORIENTED_EDGE('',*,*,#133,.T.);
#182=ORIENTED_EDGE('',*,*,#134,.T.);
#183=ORIENTED_EDGE('',*,*,#132,.F.);
#184=ORIENTED_EDGE('',*,*,#118,.T.);
#185=ORIENTED_EDGE('',*,*,#135,.T.);
#186=ORIENTED_EDGE('',*,*,#136,.F.);
#187=ORIENTED_EDGE('',*,*,#137,.F.);
#188=ORIENTED_EDGE('',*,*,#135,.F.);
#189=ORIENTED_EDGE('',*,*,#119,.T.);
#190=ORIENTED_EDGE('',*,*,#134,.F.);
#191=ORIENTED_EDGE('',*,*,#133,.F.);
#192=ORIENTED_EDGE('',*,*,#136,.T.);
#193=ORIENTED_EDGE('',*,*,#137,.T.);
#194=ORIENTED_EDGE('',*,*,#126,.T.);
#195=ORIENTED_EDGE('',*,*,#127,.T.);
#196=ORIENTED_EDGE('',*,*,#114,.F.);
#197=ORIENTED_EDGE('',*,*,#116,.F.);
#198=TOROIDAL_SURFACE('',#231,6.17751140130881,1.);
#199=TOROIDAL_SURFACE('',#254,7.91560358977945,0.3);
#200=ADVANCED_FACE('',(#35),#198,.T.);
#201=ADVANCED_FACE('',(#36),#33,.T.);
#202=ADVANCED_FACE('',(#37),#31,.F.);
#203=ADVANCED_FACE('',(#38),#32,.T.);
#204=ADVANCED_FACE('',(#39,#17),#20,.T.);
#205=ADVANCED_FACE('',(#40),#15,.T.);
#206=ADVANCED_FACE('',(#41),#199,.F.);
#207=ADVANCED_FACE('',(#42),#34,.F.);
#208=ADVANCED_FACE('',(#43),#16,.F.);
#209=ADVANCED_FACE('',(#44,#18),#21,.T.);
#210=ADVANCED_FACE('',(#45,#19),#22,.T.);
#211=CLOSED_SHELL('',(#200,#201,#202,#203,#204,#205,#206,#207,#208,#209,
#210));
#212=DERIVED_UNIT_ELEMENT(#214,1.);
#213=DERIVED_UNIT_ELEMENT(#463,3.);
#214=(
MASS_UNIT()
NAMED_UNIT(*)
SI_UNIT($,.GRAM.)
);
#215=DERIVED_UNIT((#212,#213));
#216=MEASURE_REPRESENTATION_ITEM('density measure',
POSITIVE_RATIO_MEASURE(1.),#215);
#217=PROPERTY_DEFINITION_REPRESENTATION(#222,#219);
#218=PROPERTY_DEFINITION_REPRESENTATION(#223,#220);
#219=REPRESENTATION('material name',(#221),#460);
#220=REPRESENTATION('density',(#216),#460);
#221=DESCRIPTIVE_REPRESENTATION_ITEM('Steatite','Steatite');
#222=PROPERTY_DEFINITION('material property','material name',#470);
#223=PROPERTY_DEFINITION('material property','density of part',#470);
#224=DATE_TIME_ROLE('creation_date');
#225=APPLIED_DATE_AND_TIME_ASSIGNMENT(#226,#224,(#470));
#226=DATE_AND_TIME(#227,#228);
#227=CALENDAR_DATE(2018,24,9);
#228=LOCAL_TIME(13,42,20.,#229);
#229=COORDINATED_UNIVERSAL_TIME_OFFSET(0,0,.BEHIND.);
#230=AXIS2_PLACEMENT_3D('placement',#342,#266,#267);
#231=AXIS2_PLACEMENT_3D('',#343,#268,#269);
#232=AXIS2_PLACEMENT_3D('',#346,#270,#271);
#233=AXIS2_PLACEMENT_3D('',#348,#272,#273);
#234=AXIS2_PLACEMENT_3D('',#350,#274,#275);
#235=AXIS2_PLACEMENT_3D('',#352,#276,#277);
#236=AXIS2_PLACEMENT_3D('',#353,#278,#279);
#237=AXIS2_PLACEMENT_3D('',#354,#280,#281);
#238=AXIS2_PLACEMENT_3D('',#384,#282,#283);
#239=AXIS2_PLACEMENT_3D('',#385,#284,#285);
#240=AXIS2_PLACEMENT_3D('',#386,#286,#287);
#241=AXIS2_PLACEMENT_3D('',#387,#288,#289);
#242=AXIS2_PLACEMENT_3D('',#391,#291,#292);
#243=AXIS2_PLACEMENT_3D('',#392,#293,#294);
#244=AXIS2_PLACEMENT_3D('',#393,#295,#296);
#245=AXIS2_PLACEMENT_3D('',#396,#297,#298);
#246=AXIS2_PLACEMENT_3D('',#397,#299,#300);
#247=AXIS2_PLACEMENT_3D('',#400,#302,#303);
#248=AXIS2_PLACEMENT_3D('',#401,#304,#305);
#249=AXIS2_PLACEMENT_3D('',#404,#306,#307);
#250=AXIS2_PLACEMENT_3D('',#405,#308,#309);
#251=AXIS2_PLACEMENT_3D('',#406,#310,#311);
#252=AXIS2_PLACEMENT_3D('',#409,#312,#313);
#253=AXIS2_PLACEMENT_3D('',#410,#314,#315);
#254=AXIS2_PLACEMENT_3D('',#412,#317,#318);
#255=AXIS2_PLACEMENT_3D('',#415,#319,#320);
#256=AXIS2_PLACEMENT_3D('',#416,#321,#322);
#257=AXIS2_PLACEMENT_3D('',#417,#323,#324);
#258=AXIS2_PLACEMENT_3D('',#446,#325,#326);
#259=AXIS2_PLACEMENT_3D('',#448,#327,#328);
#260=AXIS2_PLACEMENT_3D('',#449,#329,#330);
#261=AXIS2_PLACEMENT_3D('',#450,#331,#332);
#262=AXIS2_PLACEMENT_3D('',#454,#334,#335);
#263=AXIS2_PLACEMENT_3D('',#455,#336,#337);
#264=AXIS2_PLACEMENT_3D('',#456,#338,#339);
#265=AXIS2_PLACEMENT_3D('',#457,#340,#341);
#266=DIRECTION('axis',(0.,0.,1.));
#267=DIRECTION('refdir',(1.,0.,0.));
#268=DIRECTION('center_axis',(1.,0.,0.));
#269=DIRECTION('ref_axis',(0.,0.,-1.));
#270=DIRECTION('center_axis',(-1.,0.,0.));
#271=DIRECTION('ref_axis',(0.,-1.,3.06161699786838E-17));
#272=DIRECTION('center_axis',(-1.,0.,0.));
#273=DIRECTION('ref_axis',(0.,-1.,3.06161699786838E-17));
#274=DIRECTION('center_axis',(0.,-1.,-1.22464679914735E-16));
#275=DIRECTION('ref_axis',(0.,-1.22464679914735E-16,1.));
#276=DIRECTION('center_axis',(1.,0.,0.));
#277=DIRECTION('ref_axis',(0.,-1.,1.83697019872103E-16));
#278=DIRECTION('center_axis',(1.,0.,0.));
#279=DIRECTION('ref_axis',(0.,-1.,1.83697019872103E-16));
#280=DIRECTION('center_axis',(-1.,0.,0.));
#281=DIRECTION('ref_axis',(0.,-1.,3.06161699786838E-17));
#282=DIRECTION('center_axis',(1.,0.,0.));
#283=DIRECTION('ref_axis',(0.,0.,-1.));
#284=DIRECTION('center_axis',(0.,-1.,-1.22464679914735E-16));
#285=DIRECTION('ref_axis',(0.,-1.22464679914735E-16,1.));
#286=DIRECTION('center_axis',(1.,0.,0.));
#287=DIRECTION('ref_axis',(0.,0.,-1.));
#288=DIRECTION('center_axis',(1.,0.,0.));
#289=DIRECTION('ref_axis',(0.,1.,0.));
#290=DIRECTION('',(-0.987635528464463,0.156767544200709,1.91984871215589E-17));
#291=DIRECTION('center_axis',(1.,0.,0.));
#292=DIRECTION('ref_axis',(0.,0.,-1.));
#293=DIRECTION('center_axis',(1.,0.,0.));
#294=DIRECTION('ref_axis',(0.,0.,-1.));
#295=DIRECTION('center_axis',(1.,0.,0.));
#296=DIRECTION('ref_axis',(0.,-1.,0.));
#297=DIRECTION('center_axis',(-1.,0.,0.));
#298=DIRECTION('ref_axis',(0.,-1.,0.));
#299=DIRECTION('center_axis',(-1.,0.,0.));
#300=DIRECTION('ref_axis',(0.,-1.,0.));
#301=DIRECTION('',(-0.707106781186547,-0.707106781186547,-8.65956056235493E-17));
#302=DIRECTION('center_axis',(1.,0.,0.));
#303=DIRECTION('ref_axis',(0.,-1.,0.));
#304=DIRECTION('center_axis',(-1.,0.,0.));
#305=DIRECTION('ref_axis',(0.,0.,1.));
#306=DIRECTION('center_axis',(-1.,0.,0.));
#307=DIRECTION('ref_axis',(0.,-1.,1.83697019872103E-16));
#308=DIRECTION('center_axis',(-1.,0.,0.));
#309=DIRECTION('ref_axis',(0.,-1.,1.83697019872103E-16));
#310=DIRECTION('center_axis',(1.,0.,0.));
#311=DIRECTION('ref_axis',(0.,1.,0.));
#312=DIRECTION('center_axis',(1.,0.,0.));
#313=DIRECTION('ref_axis',(0.,0.,-1.));
#314=DIRECTION('center_axis',(1.,0.,0.));
#315=DIRECTION('ref_axis',(0.,0.,-1.));
#316=DIRECTION('',(-1.,0.,0.));
#317=DIRECTION('center_axis',(1.,0.,0.));
#318=DIRECTION('ref_axis',(0.,0.,-1.));
#319=DIRECTION('center_axis',(1.,0.,0.));
#320=DIRECTION('ref_axis',(0.,-1.,1.83697019872103E-16));
#321=DIRECTION('center_axis',(0.,-1.,-1.22464679914735E-16));
#322=DIRECTION('ref_axis',(0.,-1.22464679914735E-16,1.));
#323=DIRECTION('center_axis',(1.,0.,0.));
#324=DIRECTION('ref_axis',(0.,-1.,1.83697019872103E-16));
#325=DIRECTION('center_axis',(0.,-1.,-1.22464679914735E-16));
#326=DIRECTION('ref_axis',(0.,-1.22464679914735E-16,1.));
#327=DIRECTION('center_axis',(1.,0.,0.));
#328=DIRECTION('ref_axis',(0.,0.,-1.));
#329=DIRECTION('center_axis',(1.,0.,0.));
#330=DIRECTION('ref_axis',(0.,0.,-1.));
#331=DIRECTION('center_axis',(1.,0.,0.));
#332=DIRECTION('ref_axis',(0.,1.,0.));
#333=DIRECTION('',(-1.,0.,0.));
#334=DIRECTION('center_axis',(1.,0.,0.));
#335=DIRECTION('ref_axis',(0.,0.,-1.));
#336=DIRECTION('center_axis',(1.,0.,0.));
#337=DIRECTION('ref_axis',(0.,0.,-1.));
#338=DIRECTION('center_axis',(-1.,0.,0.));
#339=DIRECTION('ref_axis',(0.,0.,1.));
#340=DIRECTION('center_axis',(1.,0.,0.));
#341=DIRECTION('ref_axis',(0.,0.,-1.));
#342=CARTESIAN_POINT('',(0.,0.,0.));
#343=CARTESIAN_POINT('Origin',(-2.73554954528132,0.,0.));
#344=CARTESIAN_POINT('',(-2.57878200108061,5.18987587284435,-1.58894121891273E-15));
#345=CARTESIAN_POINT('',(-2.57878200108061,-5.18987587284435,-6.35576487565091E-16));
#346=CARTESIAN_POINT('Origin',(-2.57878200108061,0.,-7.94470609456364E-16));
#347=CARTESIAN_POINT('',(-2.57878200108061,-6.35576487565091E-16,5.18987587284435));
#348=CARTESIAN_POINT('Origin',(-2.57878200108061,0.,-7.94470609456364E-16));
#349=CARTESIAN_POINT('',(-1.9716485606849,-6.77496399757006E-16,5.5321779326799));
#350=CARTESIAN_POINT('Origin',(-2.73554954528132,-7.56526956430912E-16,
6.17751140130881));
#351=CARTESIAN_POINT('',(-1.9716485606849,5.5321779326799,-3.38748199878503E-16));
#352=CARTESIAN_POINT('Origin',(-1.9716485606849,0.,0.));
#353=CARTESIAN_POINT('Origin',(-1.9716485606849,0.,0.));
#354=CARTESIAN_POINT('Origin',(-2.57878200108061,0.,-7.94470609456364E-16));
#355=CARTESIAN_POINT('Ctrl Pts',(-1.9716485606849,0.,5.5321779326799));
#356=CARTESIAN_POINT('Ctrl Pts',(-1.9716485606849,-5.5321779326799,5.5321779326799));
#357=CARTESIAN_POINT('Ctrl Pts',(-1.9716485606849,-5.5321779326799,0.));
#358=CARTESIAN_POINT('Ctrl Pts',(-1.9716485606849,-5.5321779326799,-5.5321779326799));
#359=CARTESIAN_POINT('Ctrl Pts',(-1.9716485606849,0.,-5.5321779326799));
#360=CARTESIAN_POINT('Ctrl Pts',(-1.9716485606849,5.5321779326799,-5.5321779326799));
#361=CARTESIAN_POINT('Ctrl Pts',(-1.9716485606849,5.5321779326799,0.));
#362=CARTESIAN_POINT('Ctrl Pts',(-1.9716485606849,5.5321779326799,5.5321779326799));
#363=CARTESIAN_POINT('Ctrl Pts',(-1.9716485606849,0.,5.5321779326799));
#364=CARTESIAN_POINT('Ctrl Pts',(-1.11794544876189,0.,6.54273244356957));
#365=CARTESIAN_POINT('Ctrl Pts',(-1.11794544876189,-6.54273244356957,6.54273244356957));
#366=CARTESIAN_POINT('Ctrl Pts',(-1.11794544876189,-6.54273244356957,0.));
#367=CARTESIAN_POINT('Ctrl Pts',(-1.11794544876189,-6.54273244356957,-6.54273244356957));
#368=CARTESIAN_POINT('Ctrl Pts',(-1.11794544876189,0.,-6.54273244356957));
#369=CARTESIAN_POINT('Ctrl Pts',(-1.11794544876189,6.54273244356957,-6.54273244356957));
#370=CARTESIAN_POINT('Ctrl Pts',(-1.11794544876189,6.54273244356957,0.));
#371=CARTESIAN_POINT('Ctrl Pts',(-1.11794544876189,6.54273244356957,6.54273244356957));
#372=CARTESIAN_POINT('Ctrl Pts',(-1.11794544876189,0.,6.54273244356957));
#373=CARTESIAN_POINT('Ctrl Pts',(0.,0.,7.25));
#374=CARTESIAN_POINT('Ctrl Pts',(0.,-7.25,7.25));
#375=CARTESIAN_POINT('Ctrl Pts',(0.,-7.25,0.));
#376=CARTESIAN_POINT('Ctrl Pts',(0.,-7.25,-7.25));
#377=CARTESIAN_POINT('Ctrl Pts',(0.,0.,-7.25));
#378=CARTESIAN_POINT('Ctrl Pts',(0.,7.25,-7.25));
#379=CARTESIAN_POINT('Ctrl Pts',(0.,7.25,0.));
#380=CARTESIAN_POINT('Ctrl Pts',(0.,7.25,7.25));
#381=CARTESIAN_POINT('Ctrl Pts',(0.,0.,7.25));
#382=CARTESIAN_POINT('',(0.,7.25,0.));
#383=CARTESIAN_POINT('',(0.,-8.87868929381831E-16,7.25));
#384=CARTESIAN_POINT('Origin',(0.,0.,0.));
#385=CARTESIAN_POINT('Origin',(4.5978999068443,2.16638763858023E-18,-0.0176898975287287));
#386=CARTESIAN_POINT('Origin',(0.,0.,0.));
#387=CARTESIAN_POINT('Origin',(-5.35,0.,0.));
#388=CARTESIAN_POINT('',(-8.5,-4.25,-5.20474889637625E-16));
#389=CARTESIAN_POINT('',(-5.35,-4.75,-5.81707229594993E-16));
#390=CARTESIAN_POINT('',(-8.5,4.25,0.));
#391=CARTESIAN_POINT('Origin',(-8.5,0.,0.));
#392=CARTESIAN_POINT('Origin',(-8.5,0.,0.));
#393=CARTESIAN_POINT('Origin',(-6.4,0.,0.));
#394=CARTESIAN_POINT('',(-6.3,8.25,-1.01033360929657E-15));
#395=CARTESIAN_POINT('',(-6.3,-8.25,-1.01033360929657E-15));
#396=CARTESIAN_POINT('Origin',(-6.3,0.,0.));
#397=CARTESIAN_POINT('Origin',(-6.3,0.,0.));
#398=CARTESIAN_POINT('',(-6.5,8.05,9.85840673313619E-16));
#399=CARTESIAN_POINT('',(-6.4,8.15,9.98087141305093E-16));
#400=CARTESIAN_POINT('Origin',(-6.5,0.,0.));
#401=CARTESIAN_POINT('Origin',(-6.5,8.25,0.));
#402=CARTESIAN_POINT('',(-6.5,7.91560358977945,-2.42345464988567E-15));
#403=CARTESIAN_POINT('',(-6.5,-9.6938185995427E-16,7.91560358977945));
#404=CARTESIAN_POINT('Origin',(-6.5,0.,0.));
#405=CARTESIAN_POINT('Origin',(-6.5,0.,0.));
#406=CARTESIAN_POINT('Origin',(-3.25,0.,0.));
#407=CARTESIAN_POINT('',(0.,8.25,0.));
#408=CARTESIAN_POINT('',(0.,-8.25,-1.01033360929657E-15));
#409=CARTESIAN_POINT('Origin',(0.,0.,0.));
#410=CARTESIAN_POINT('Origin',(0.,0.,0.));
#411=CARTESIAN_POINT('',(-3.25,-8.25,-1.01033360929657E-15));
#412=CARTESIAN_POINT('Origin',(-6.8,0.,0.));
#413=CARTESIAN_POINT('',(-6.66955390124917,7.64544842081041,-4.68148696829583E-16));
#414=CARTESIAN_POINT('',(-6.66955390124917,-9.36297393659166E-16,7.64544842081041));
#415=CARTESIAN_POINT('Origin',(-6.66955390124917,0.,0.));
#416=CARTESIAN_POINT('Origin',(-6.8,-9.6938185995427E-16,7.91560358977945));
#417=CARTESIAN_POINT('Origin',(-6.66955390124917,0.,0.));
#418=CARTESIAN_POINT('Ctrl Pts',(-10.,0.,4.74999999999999));
#419=CARTESIAN_POINT('Ctrl Pts',(-10.,-4.74999999999999,4.74999999999999));
#420=CARTESIAN_POINT('Ctrl Pts',(-10.,-4.74999999999999,0.));
#421=CARTESIAN_POINT('Ctrl Pts',(-10.,-4.74999999999999,-4.74999999999999));
#422=CARTESIAN_POINT('Ctrl Pts',(-10.,0.,-4.74999999999999));
#423=CARTESIAN_POINT('Ctrl Pts',(-10.,4.74999999999999,-4.74999999999999));
#424=CARTESIAN_POINT('Ctrl Pts',(-10.,4.74999999999999,0.));
#425=CARTESIAN_POINT('Ctrl Pts',(-10.,4.74999999999999,4.74999999999999));
#426=CARTESIAN_POINT('Ctrl Pts',(-10.,0.,4.74999999999999));
#427=CARTESIAN_POINT('Ctrl Pts',(-8.72891350301263,0.,6.65107386562318));
#428=CARTESIAN_POINT('Ctrl Pts',(-8.72891350301263,-6.65107386562318,6.65107386562318));
#429=CARTESIAN_POINT('Ctrl Pts',(-8.72891350301263,-6.65107386562318,0.));
#430=CARTESIAN_POINT('Ctrl Pts',(-8.72891350301263,-6.65107386562318,-6.65107386562318));
#431=CARTESIAN_POINT('Ctrl Pts',(-8.72891350301263,0.,-6.65107386562318));
#432=CARTESIAN_POINT('Ctrl Pts',(-8.72891350301263,6.65107386562318,-6.65107386562318));
#433=CARTESIAN_POINT('Ctrl Pts',(-8.72891350301263,6.65107386562318,0.));
#434=CARTESIAN_POINT('Ctrl Pts',(-8.72891350301263,6.65107386562318,6.65107386562318));
#435=CARTESIAN_POINT('Ctrl Pts',(-8.72891350301263,0.,6.65107386562318));
#436=CARTESIAN_POINT('Ctrl Pts',(-6.66955390124917,0.,7.64544842081041));
#437=CARTESIAN_POINT('Ctrl Pts',(-6.66955390124917,-7.64544842081041,7.64544842081041));
#438=CARTESIAN_POINT('Ctrl Pts',(-6.66955390124917,-7.64544842081041,0.));
#439=CARTESIAN_POINT('Ctrl Pts',(-6.66955390124917,-7.64544842081041,-7.64544842081041));
#440=CARTESIAN_POINT('Ctrl Pts',(-6.66955390124917,0.,-7.64544842081041));
#441=CARTESIAN_POINT('Ctrl Pts',(-6.66955390124917,7.64544842081041,-7.64544842081041));
#442=CARTESIAN_POINT('Ctrl Pts',(-6.66955390124917,7.64544842081041,0.));
#443=CARTESIAN_POINT('Ctrl Pts',(-6.66955390124917,7.64544842081041,7.64544842081041));
#444=CARTESIAN_POINT('Ctrl Pts',(-6.66955390124917,0.,7.64544842081041));
#445=CARTESIAN_POINT('',(-10.,-5.81707229594991E-16,4.74999999999999));
#446=CARTESIAN_POINT('Origin',(-3.01706313622582,-9.93233739625155E-18,
0.0811036896774386));
#447=CARTESIAN_POINT('',(-10.,4.74999999999999,0.));
#448=CARTESIAN_POINT('Origin',(-10.,0.,0.));
#449=CARTESIAN_POINT('Origin',(-10.,0.,0.));
#450=CARTESIAN_POINT('Origin',(-9.25,0.,0.));
#451=CARTESIAN_POINT('',(-10.,-4.25,-5.20474889637625E-16));
#452=CARTESIAN_POINT('',(-9.25,-4.25,-5.20474889637625E-16));
#453=CARTESIAN_POINT('',(-10.,4.25,0.));
#454=CARTESIAN_POINT('Origin',(-10.,0.,0.));
#455=CARTESIAN_POINT('Origin',(-10.,0.,0.));
#456=CARTESIAN_POINT('Origin',(-10.,4.74999999999999,0.));
#457=CARTESIAN_POINT('Origin',(0.,7.25,0.));
#458=UNCERTAINTY_MEASURE_WITH_UNIT(LENGTH_MEASURE(0.01),#462,
'DISTANCE_ACCURACY_VALUE',
'Maximum model space distance between geometric entities at asserted c
onnectivities');
#459=UNCERTAINTY_MEASURE_WITH_UNIT(LENGTH_MEASURE(0.01),#462,
'DISTANCE_ACCURACY_VALUE',
'Maximum model space distance between geometric entities at asserted c
onnectivities');
#460=(
GEOMETRIC_REPRESENTATION_CONTEXT(3)
GLOBAL_UNCERTAINTY_ASSIGNED_CONTEXT((#458))
GLOBAL_UNIT_ASSIGNED_CONTEXT((#462,#464,#465))
REPRESENTATION_CONTEXT('','3D')
);
#461=(
GEOMETRIC_REPRESENTATION_CONTEXT(3)
GLOBAL_UNCERTAINTY_ASSIGNED_CONTEXT((#459))
GLOBAL_UNIT_ASSIGNED_CONTEXT((#462,#464,#465))
REPRESENTATION_CONTEXT('','3D')
);
#462=(
LENGTH_UNIT()
NAMED_UNIT(*)
SI_UNIT(.MILLI.,.METRE.)
);
#463=(
LENGTH_UNIT()
NAMED_UNIT(*)
SI_UNIT(.CENTI.,.METRE.)
);
#464=(
NAMED_UNIT(*)
PLANE_ANGLE_UNIT()
SI_UNIT($,.RADIAN.)
);
#465=(
NAMED_UNIT(*)
SI_UNIT($,.STERADIAN.)
SOLID_ANGLE_UNIT()
);
#466=SHAPE_DEFINITION_REPRESENTATION(#467,#468);
#467=PRODUCT_DEFINITION_SHAPE('',$,#470);
#468=SHAPE_REPRESENTATION('',(#230),#460);
#469=PRODUCT_DEFINITION_CONTEXT('part definition',#474,'design');
#470=PRODUCT_DEFINITION('CBI-ST-8.5-10','CBI-ST-8.5-10',#471,#469);
#471=PRODUCT_DEFINITION_FORMATION('',$,#476);
#472=PRODUCT_RELATED_PRODUCT_CATEGORY('CBI-ST-8.5-10','CBI-ST-8.5-10',(#476));
#473=APPLICATION_PROTOCOL_DEFINITION('international standard',
'automotive_design',2009,#474);
#474=APPLICATION_CONTEXT(
'Core Data for Automotive Mechanical Design Process');
#475=PRODUCT_CONTEXT('part definition',#474,'mechanical');
#476=PRODUCT('CBI-ST-8.5-10','CBI-ST-8.5-10',$,(#475));
#477=PRESENTATION_STYLE_ASSIGNMENT((#478));
#478=SURFACE_STYLE_USAGE(.BOTH.,#481);
#479=SURFACE_STYLE_RENDERING_WITH_PROPERTIES($,#485,(#480));
#480=SURFACE_STYLE_TRANSPARENT(1.);
#481=SURFACE_SIDE_STYLE('',(#482,#479));
#482=SURFACE_STYLE_FILL_AREA(#483);
#483=FILL_AREA_STYLE('',(#484));
#484=FILL_AREA_STYLE_COLOUR('',#485);
#485=COLOUR_RGB('',0.937254901960784,0.937254901960784,0.913725490196078);
ENDSEC;
END-ISO-10303-21;
