ISO-10303-21;
HEADER;
/* Generated by software containing ST-Developer
 * from STEP Tools, Inc. (www.steptools.com) 
 */

FILE_DESCRIPTION(
/* description */ (''),
/* implementation_level */ '2;1');

FILE_NAME(
/* name */ 'G:\\ACCESSORIES\\Ceramic Parts\\Step Files\\CBI-ST-5.5-9.s
tp',
/* time_stamp */ '2018-09-25T15:55:07+01:00',
/* author */ ('paul'),
/* organization */ (''),
/* preprocessor_version */ 'ST-DEVELOPER v17.2',
/* originating_system */ 'Autodesk Inventor 2019',
/* authorisation */ '');

FILE_SCHEMA (('AUTOMOTIVE_DESIGN { 1 0 10303 214 3 1 1 }'));
ENDSEC;

DATA;
#10=MECHANICAL_DESIGN_GEOMETRIC_PRESENTATION_REPRESENTATION('',(#13),#412);
#11=SHAPE_REPRESENTATION_RELATIONSHIP('SRR','None',#419,#12);
#12=ADVANCED_BREP_SHAPE_REPRESENTATION('',(#14),#411);
#13=STYLED_ITEM('',(#428),#14);
#14=MANIFOLD_SOLID_BREP('Solid1',#197);
#15=CYLINDRICAL_SURFACE('',#240,2.75);
#16=CYLINDRICAL_SURFACE('',#246,5.5);
#17=(
BOUNDED_SURFACE()
B_SPLINE_SURFACE(2,2,((#348,#349,#350,#351,#352,#353,#354,#355,#356),(#357,
#358,#359,#360,#361,#362,#363,#364,#365),(#366,#367,#368,#369,#370,#371,
#372,#373,#374)),.UNSPECIFIED.,.F.,.T.,.F.)
B_SPLINE_SURFACE_WITH_KNOTS((3,3),(3,2,2,2,3),(-0.922090811184936,-0.364911406401634),
(-3.14159265358979,-1.5707963267949,0.,1.5707963267949,3.14159265358979),
 .UNSPECIFIED.)
GEOMETRIC_REPRESENTATION_ITEM()
RATIONAL_B_SPLINE_SURFACE(((1.,0.707106781186548,1.,0.707106781186548,1.,
0.707106781186548,1.,0.707106781186548,1.),(0.961444226151471,0.679843732044358,
0.961444226151471,0.679843732044358,0.961444226151471,0.679843732044358,
0.961444226151471,0.679843732044358,0.961444226151471),(1.,0.707106781186548,
1.,0.707106781186548,1.,0.707106781186548,1.,0.707106781186548,1.)))
REPRESENTATION_ITEM('')
SURFACE()
);
#18=LINE('',#346,#22);
#19=LINE('',#388,#23);
#20=LINE('',#393,#24);
#21=LINE('',#407,#25);
#22=VECTOR('',#278,4.32162162162162);
#23=VECTOR('',#295,2.925);
#24=VECTOR('',#302,2.75);
#25=VECTOR('',#319,5.5);
#26=CONICAL_SURFACE('',#227,4.32162162162162,0.330297354829254);
#27=CONICAL_SURFACE('',#237,2.925,0.0727878486039246);
#28=FACE_BOUND('',#43,.T.);
#29=FACE_BOUND('',#51,.T.);
#30=PLANE('',#224);
#31=PLANE('',#249);
#32=FACE_OUTER_BOUND('',#41,.T.);
#33=FACE_OUTER_BOUND('',#42,.T.);
#34=FACE_OUTER_BOUND('',#44,.T.);
#35=FACE_OUTER_BOUND('',#45,.T.);
#36=FACE_OUTER_BOUND('',#46,.T.);
#37=FACE_OUTER_BOUND('',#47,.T.);
#38=FACE_OUTER_BOUND('',#48,.T.);
#39=FACE_OUTER_BOUND('',#49,.T.);
#40=FACE_OUTER_BOUND('',#50,.T.);
#41=EDGE_LOOP('',(#128,#129,#130,#131,#132,#133,#134));
#42=EDGE_LOOP('',(#135,#136));
#43=EDGE_LOOP('',(#137,#138));
#44=EDGE_LOOP('',(#139,#140,#141,#142,#143,#144,#145,#146));
#45=EDGE_LOOP('',(#147,#148,#149,#150,#151,#152,#153));
#46=EDGE_LOOP('',(#154,#155,#156,#157,#158,#159,#160));
#47=EDGE_LOOP('',(#161,#162,#163,#164,#165,#166));
#48=EDGE_LOOP('',(#167,#168,#169,#170,#171,#172,#173,#174));
#49=EDGE_LOOP('',(#175,#176,#177,#178,#179,#180,#181));
#50=EDGE_LOOP('',(#182,#183));
#51=EDGE_LOOP('',(#184,#185));
#52=CIRCLE('',#218,4.01583011583012);
#53=CIRCLE('',#219,4.01583011583012);
#54=CIRCLE('',#220,0.5);
#55=CIRCLE('',#221,3.54285714285714);
#56=CIRCLE('',#222,3.54285714285714);
#57=CIRCLE('',#223,4.01583011583012);
#58=CIRCLE('',#225,2.75);
#59=CIRCLE('',#226,2.75);
#60=CIRCLE('',#228,4.74324324324324);
#61=CIRCLE('',#229,4.74324324324324);
#62=CIRCLE('',#230,4.74324324324324);
#63=CIRCLE('',#231,4.75);
#64=CIRCLE('',#232,5.);
#65=CIRCLE('',#233,3.1);
#66=CIRCLE('',#234,3.1);
#67=CIRCLE('',#235,3.1);
#68=CIRCLE('',#236,4.75);
#69=CIRCLE('',#238,2.75);
#70=CIRCLE('',#239,2.75);
#71=CIRCLE('',#242,0.8);
#72=CIRCLE('',#243,5.5);
#73=CIRCLE('',#244,5.5);
#74=CIRCLE('',#245,5.5);
#75=CIRCLE('',#247,5.5);
#76=CIRCLE('',#248,5.5);
#77=VERTEX_POINT('',#324);
#78=VERTEX_POINT('',#325);
#79=VERTEX_POINT('',#327);
#80=VERTEX_POINT('',#329);
#81=VERTEX_POINT('',#331);
#82=VERTEX_POINT('',#336);
#83=VERTEX_POINT('',#337);
#84=VERTEX_POINT('',#341);
#85=VERTEX_POINT('',#342);
#86=VERTEX_POINT('',#344);
#87=VERTEX_POINT('',#375);
#88=VERTEX_POINT('',#376);
#89=VERTEX_POINT('',#378);
#90=VERTEX_POINT('',#380);
#91=VERTEX_POINT('',#382);
#92=VERTEX_POINT('',#387);
#93=VERTEX_POINT('',#389);
#94=VERTEX_POINT('',#395);
#95=VERTEX_POINT('',#397);
#96=VERTEX_POINT('',#399);
#97=VERTEX_POINT('',#403);
#98=VERTEX_POINT('',#404);
#99=EDGE_CURVE('',#77,#78,#52,.T.);
#100=EDGE_CURVE('',#78,#79,#53,.T.);
#101=EDGE_CURVE('',#79,#80,#54,.T.);
#102=EDGE_CURVE('',#80,#81,#55,.T.);
#103=EDGE_CURVE('',#81,#80,#56,.T.);
#104=EDGE_CURVE('',#79,#77,#57,.T.);
#105=EDGE_CURVE('',#82,#83,#58,.T.);
#106=EDGE_CURVE('',#83,#82,#59,.T.);
#107=EDGE_CURVE('',#84,#85,#60,.T.);
#108=EDGE_CURVE('',#86,#84,#61,.T.);
#109=EDGE_CURVE('',#86,#78,#18,.T.);
#110=EDGE_CURVE('',#85,#86,#62,.T.);
#111=EDGE_CURVE('',#87,#88,#63,.T.);
#112=EDGE_CURVE('',#88,#89,#64,.T.);
#113=EDGE_CURVE('',#90,#89,#65,.T.);
#114=EDGE_CURVE('',#91,#90,#66,.T.);
#115=EDGE_CURVE('',#89,#91,#67,.T.);
#116=EDGE_CURVE('',#88,#87,#68,.T.);
#117=EDGE_CURVE('',#91,#92,#19,.T.);
#118=EDGE_CURVE('',#93,#92,#69,.T.);
#119=EDGE_CURVE('',#92,#93,#70,.T.);
#120=EDGE_CURVE('',#92,#83,#20,.T.);
#121=EDGE_CURVE('',#85,#94,#71,.T.);
#122=EDGE_CURVE('',#95,#94,#72,.T.);
#123=EDGE_CURVE('',#96,#95,#73,.T.);
#124=EDGE_CURVE('',#94,#96,#74,.T.);
#125=EDGE_CURVE('',#97,#98,#75,.T.);
#126=EDGE_CURVE('',#98,#97,#76,.T.);
#127=EDGE_CURVE('',#98,#96,#21,.T.);
#128=ORIENTED_EDGE('',*,*,#99,.T.);
#129=ORIENTED_EDGE('',*,*,#100,.T.);
#130=ORIENTED_EDGE('',*,*,#101,.T.);
#131=ORIENTED_EDGE('',*,*,#102,.T.);
#132=ORIENTED_EDGE('',*,*,#103,.T.);
#133=ORIENTED_EDGE('',*,*,#101,.F.);
#134=ORIENTED_EDGE('',*,*,#104,.T.);
#135=ORIENTED_EDGE('',*,*,#103,.F.);
#136=ORIENTED_EDGE('',*,*,#102,.F.);
#137=ORIENTED_EDGE('',*,*,#105,.T.);
#138=ORIENTED_EDGE('',*,*,#106,.T.);
#139=ORIENTED_EDGE('',*,*,#107,.F.);
#140=ORIENTED_EDGE('',*,*,#108,.F.);
#141=ORIENTED_EDGE('',*,*,#109,.T.);
#142=ORIENTED_EDGE('',*,*,#99,.F.);
#143=ORIENTED_EDGE('',*,*,#104,.F.);
#144=ORIENTED_EDGE('',*,*,#100,.F.);
#145=ORIENTED_EDGE('',*,*,#109,.F.);
#146=ORIENTED_EDGE('',*,*,#110,.F.);
#147=ORIENTED_EDGE('',*,*,#111,.T.);
#148=ORIENTED_EDGE('',*,*,#112,.T.);
#149=ORIENTED_EDGE('',*,*,#113,.F.);
#150=ORIENTED_EDGE('',*,*,#114,.F.);
#151=ORIENTED_EDGE('',*,*,#115,.F.);
#152=ORIENTED_EDGE('',*,*,#112,.F.);
#153=ORIENTED_EDGE('',*,*,#116,.T.);
#154=ORIENTED_EDGE('',*,*,#113,.T.);
#155=ORIENTED_EDGE('',*,*,#115,.T.);
#156=ORIENTED_EDGE('',*,*,#117,.T.);
#157=ORIENTED_EDGE('',*,*,#118,.F.);
#158=ORIENTED_EDGE('',*,*,#119,.F.);
#159=ORIENTED_EDGE('',*,*,#117,.F.);
#160=ORIENTED_EDGE('',*,*,#114,.T.);
#161=ORIENTED_EDGE('',*,*,#118,.T.);
#162=ORIENTED_EDGE('',*,*,#120,.T.);
#163=ORIENTED_EDGE('',*,*,#105,.F.);
#164=ORIENTED_EDGE('',*,*,#106,.F.);
#165=ORIENTED_EDGE('',*,*,#120,.F.);
#166=ORIENTED_EDGE('',*,*,#119,.T.);
#167=ORIENTED_EDGE('',*,*,#107,.T.);
#168=ORIENTED_EDGE('',*,*,#121,.T.);
#169=ORIENTED_EDGE('',*,*,#122,.F.);
#170=ORIENTED_EDGE('',*,*,#123,.F.);
#171=ORIENTED_EDGE('',*,*,#124,.F.);
#172=ORIENTED_EDGE('',*,*,#121,.F.);
#173=ORIENTED_EDGE('',*,*,#110,.T.);
#174=ORIENTED_EDGE('',*,*,#108,.T.);
#175=ORIENTED_EDGE('',*,*,#125,.F.);
#176=ORIENTED_EDGE('',*,*,#126,.F.);
#177=ORIENTED_EDGE('',*,*,#127,.T.);
#178=ORIENTED_EDGE('',*,*,#123,.T.);
#179=ORIENTED_EDGE('',*,*,#122,.T.);
#180=ORIENTED_EDGE('',*,*,#124,.T.);
#181=ORIENTED_EDGE('',*,*,#127,.F.);
#182=ORIENTED_EDGE('',*,*,#125,.T.);
#183=ORIENTED_EDGE('',*,*,#126,.T.);
#184=ORIENTED_EDGE('',*,*,#111,.F.);
#185=ORIENTED_EDGE('',*,*,#116,.F.);
#186=TOROIDAL_SURFACE('',#217,3.54285714285714,0.5);
#187=TOROIDAL_SURFACE('',#241,5.5,0.8);
#188=ADVANCED_FACE('',(#32),#186,.T.);
#189=ADVANCED_FACE('',(#33,#28),#30,.T.);
#190=ADVANCED_FACE('',(#34),#26,.T.);
#191=ADVANCED_FACE('',(#35),#17,.T.);
#192=ADVANCED_FACE('',(#36),#27,.F.);
#193=ADVANCED_FACE('',(#37),#15,.F.);
#194=ADVANCED_FACE('',(#38),#187,.F.);
#195=ADVANCED_FACE('',(#39),#16,.T.);
#196=ADVANCED_FACE('',(#40,#29),#31,.T.);
#197=CLOSED_SHELL('',(#188,#189,#190,#191,#192,#193,#194,#195,#196));
#198=DERIVED_UNIT_ELEMENT(#200,1.);
#199=DERIVED_UNIT_ELEMENT(#414,3.);
#200=(
MASS_UNIT()
NAMED_UNIT(*)
SI_UNIT($,.GRAM.)
);
#201=DERIVED_UNIT((#198,#199));
#202=MEASURE_REPRESENTATION_ITEM('density measure',
POSITIVE_RATIO_MEASURE(1.),#201);
#203=PROPERTY_DEFINITION_REPRESENTATION(#208,#205);
#204=PROPERTY_DEFINITION_REPRESENTATION(#209,#206);
#205=REPRESENTATION('material name',(#207),#411);
#206=REPRESENTATION('density',(#202),#411);
#207=DESCRIPTIVE_REPRESENTATION_ITEM('Steatite','Steatite');
#208=PROPERTY_DEFINITION('material property','material name',#421);
#209=PROPERTY_DEFINITION('material property','density of part',#421);
#210=DATE_TIME_ROLE('creation_date');
#211=APPLIED_DATE_AND_TIME_ASSIGNMENT(#212,#210,(#421));
#212=DATE_AND_TIME(#213,#214);
#213=CALENDAR_DATE(2018,24,9);
#214=LOCAL_TIME(13,42,20.,#215);
#215=COORDINATED_UNIVERSAL_TIME_OFFSET(0,0,.BEHIND.);
#216=AXIS2_PLACEMENT_3D('placement',#322,#250,#251);
#217=AXIS2_PLACEMENT_3D('',#323,#252,#253);
#218=AXIS2_PLACEMENT_3D('',#326,#254,#255);
#219=AXIS2_PLACEMENT_3D('',#328,#256,#257);
#220=AXIS2_PLACEMENT_3D('',#330,#258,#259);
#221=AXIS2_PLACEMENT_3D('',#332,#260,#261);
#222=AXIS2_PLACEMENT_3D('',#333,#262,#263);
#223=AXIS2_PLACEMENT_3D('',#334,#264,#265);
#224=AXIS2_PLACEMENT_3D('',#335,#266,#267);
#225=AXIS2_PLACEMENT_3D('',#338,#268,#269);
#226=AXIS2_PLACEMENT_3D('',#339,#270,#271);
#227=AXIS2_PLACEMENT_3D('',#340,#272,#273);
#228=AXIS2_PLACEMENT_3D('',#343,#274,#275);
#229=AXIS2_PLACEMENT_3D('',#345,#276,#277);
#230=AXIS2_PLACEMENT_3D('',#347,#279,#280);
#231=AXIS2_PLACEMENT_3D('',#377,#281,#282);
#232=AXIS2_PLACEMENT_3D('',#379,#283,#284);
#233=AXIS2_PLACEMENT_3D('',#381,#285,#286);
#234=AXIS2_PLACEMENT_3D('',#383,#287,#288);
#235=AXIS2_PLACEMENT_3D('',#384,#289,#290);
#236=AXIS2_PLACEMENT_3D('',#385,#291,#292);
#237=AXIS2_PLACEMENT_3D('',#386,#293,#294);
#238=AXIS2_PLACEMENT_3D('',#390,#296,#297);
#239=AXIS2_PLACEMENT_3D('',#391,#298,#299);
#240=AXIS2_PLACEMENT_3D('',#392,#300,#301);
#241=AXIS2_PLACEMENT_3D('',#394,#303,#304);
#242=AXIS2_PLACEMENT_3D('',#396,#305,#306);
#243=AXIS2_PLACEMENT_3D('',#398,#307,#308);
#244=AXIS2_PLACEMENT_3D('',#400,#309,#310);
#245=AXIS2_PLACEMENT_3D('',#401,#311,#312);
#246=AXIS2_PLACEMENT_3D('',#402,#313,#314);
#247=AXIS2_PLACEMENT_3D('',#405,#315,#316);
#248=AXIS2_PLACEMENT_3D('',#406,#317,#318);
#249=AXIS2_PLACEMENT_3D('',#408,#320,#321);
#250=DIRECTION('axis',(0.,0.,1.));
#251=DIRECTION('refdir',(1.,0.,0.));
#252=DIRECTION('center_axis',(1.,0.,0.));
#253=DIRECTION('ref_axis',(0.,0.,-1.));
#254=DIRECTION('center_axis',(-1.,0.,0.));
#255=DIRECTION('ref_axis',(0.,-1.,3.06161699786838E-17));
#256=DIRECTION('center_axis',(-1.,0.,0.));
#257=DIRECTION('ref_axis',(0.,-1.,3.06161699786838E-17));
#258=DIRECTION('center_axis',(0.,-1.,-1.22464679914735E-16));
#259=DIRECTION('ref_axis',(0.,-1.22464679914735E-16,1.));
#260=DIRECTION('center_axis',(1.,0.,0.));
#261=DIRECTION('ref_axis',(0.,-1.,1.83697019872103E-16));
#262=DIRECTION('center_axis',(1.,0.,0.));
#263=DIRECTION('ref_axis',(0.,-1.,1.83697019872103E-16));
#264=DIRECTION('center_axis',(-1.,0.,0.));
#265=DIRECTION('ref_axis',(0.,-1.,3.06161699786838E-17));
#266=DIRECTION('center_axis',(-1.,0.,0.));
#267=DIRECTION('ref_axis',(0.,0.,1.));
#268=DIRECTION('center_axis',(1.,0.,0.));
#269=DIRECTION('ref_axis',(0.,0.,-1.));
#270=DIRECTION('center_axis',(1.,0.,0.));
#271=DIRECTION('ref_axis',(0.,0.,-1.));
#272=DIRECTION('center_axis',(1.,0.,0.));
#273=DIRECTION('ref_axis',(0.,1.,0.));
#274=DIRECTION('center_axis',(1.,0.,0.));
#275=DIRECTION('ref_axis',(0.,0.,-1.));
#276=DIRECTION('center_axis',(1.,0.,0.));
#277=DIRECTION('ref_axis',(0.,0.,-1.));
#278=DIRECTION('',(-0.945945945945946,0.324324324324325,3.97182745669412E-17));
#279=DIRECTION('center_axis',(1.,0.,0.));
#280=DIRECTION('ref_axis',(0.,0.,-1.));
#281=DIRECTION('center_axis',(1.,0.,0.));
#282=DIRECTION('ref_axis',(0.,0.,-1.));
#283=DIRECTION('center_axis',(0.,-1.,-1.22464679914735E-16));
#284=DIRECTION('ref_axis',(0.,-1.22464679914735E-16,1.));
#285=DIRECTION('center_axis',(1.,0.,0.));
#286=DIRECTION('ref_axis',(0.,0.,-1.));
#287=DIRECTION('center_axis',(1.,0.,0.));
#288=DIRECTION('ref_axis',(0.,0.,-1.));
#289=DIRECTION('center_axis',(1.,0.,0.));
#290=DIRECTION('ref_axis',(0.,0.,-1.));
#291=DIRECTION('center_axis',(1.,0.,0.));
#292=DIRECTION('ref_axis',(0.,0.,-1.));
#293=DIRECTION('center_axis',(1.,0.,0.));
#294=DIRECTION('ref_axis',(0.,1.,0.));
#295=DIRECTION('',(-0.997352133906082,0.072723593097318,8.9060715509125E-18));
#296=DIRECTION('center_axis',(1.,0.,0.));
#297=DIRECTION('ref_axis',(0.,0.,-1.));
#298=DIRECTION('center_axis',(1.,0.,0.));
#299=DIRECTION('ref_axis',(0.,0.,-1.));
#300=DIRECTION('center_axis',(1.,0.,0.));
#301=DIRECTION('ref_axis',(0.,1.,0.));
#302=DIRECTION('',(-1.,0.,0.));
#303=DIRECTION('center_axis',(1.,0.,0.));
#304=DIRECTION('ref_axis',(0.,0.,-1.));
#305=DIRECTION('center_axis',(0.,-1.,-1.22464679914735E-16));
#306=DIRECTION('ref_axis',(0.,-1.22464679914735E-16,1.));
#307=DIRECTION('center_axis',(1.,0.,0.));
#308=DIRECTION('ref_axis',(0.,0.,-1.));
#309=DIRECTION('center_axis',(1.,0.,0.));
#310=DIRECTION('ref_axis',(0.,0.,-1.));
#311=DIRECTION('center_axis',(1.,0.,0.));
#312=DIRECTION('ref_axis',(0.,0.,-1.));
#313=DIRECTION('center_axis',(1.,0.,0.));
#314=DIRECTION('ref_axis',(0.,1.,0.));
#315=DIRECTION('center_axis',(1.,0.,0.));
#316=DIRECTION('ref_axis',(0.,0.,-1.));
#317=DIRECTION('center_axis',(1.,0.,0.));
#318=DIRECTION('ref_axis',(0.,0.,-1.));
#319=DIRECTION('',(-1.,0.,0.));
#320=DIRECTION('center_axis',(1.,0.,0.));
#321=DIRECTION('ref_axis',(0.,0.,-1.));
#322=CARTESIAN_POINT('',(0.,0.,0.));
#323=CARTESIAN_POINT('Origin',(-8.5,0.,0.));
#324=CARTESIAN_POINT('',(-8.66216216216216,4.01583011583012,-1.22949337431772E-15));
#325=CARTESIAN_POINT('',(-8.66216216216216,-4.01583011583012,-4.9179734972709E-16));
#326=CARTESIAN_POINT('Origin',(-8.66216216216216,0.,-6.14746687158862E-16));
#327=CARTESIAN_POINT('',(-8.66216216216216,-4.9179734972709E-16,4.01583011583012));
#328=CARTESIAN_POINT('Origin',(-8.66216216216216,0.,-6.14746687158862E-16));
#329=CARTESIAN_POINT('',(-9.,-4.33874865983634E-16,3.54285714285714));
#330=CARTESIAN_POINT('Origin',(-8.5,-4.33874865983634E-16,3.54285714285714));
#331=CARTESIAN_POINT('',(-9.,3.54285714285714,-2.16937432991817E-16));
#332=CARTESIAN_POINT('Origin',(-9.,0.,0.));
#333=CARTESIAN_POINT('Origin',(-9.,0.,0.));
#334=CARTESIAN_POINT('Origin',(-8.66216216216216,0.,-6.14746687158862E-16));
#335=CARTESIAN_POINT('Origin',(-9.,3.9,0.));
#336=CARTESIAN_POINT('',(-9.,2.75,0.));
#337=CARTESIAN_POINT('',(-9.,-2.75,-3.36777869765522E-16));
#338=CARTESIAN_POINT('Origin',(-9.,0.,0.));
#339=CARTESIAN_POINT('Origin',(-9.,0.,0.));
#340=CARTESIAN_POINT('Origin',(-7.77027027027027,0.,0.));
#341=CARTESIAN_POINT('',(-6.54054054054055,4.74324324324324,0.));
#342=CARTESIAN_POINT('',(-6.54054054054054,-5.80879765541515E-16,4.74324324324324));
#343=CARTESIAN_POINT('Origin',(-6.54054054054055,0.,0.));
#344=CARTESIAN_POINT('',(-6.54054054054055,-4.74324324324324,-5.80879765541515E-16));
#345=CARTESIAN_POINT('Origin',(-6.54054054054055,0.,0.));
#346=CARTESIAN_POINT('',(-7.77027027027027,-4.32162162162162,-5.29246008604491E-16));
#347=CARTESIAN_POINT('Origin',(-6.54054054054055,0.,0.));
#348=CARTESIAN_POINT('Ctrl Pts',(-2.2,0.,3.1));
#349=CARTESIAN_POINT('Ctrl Pts',(-2.2,-3.1,3.1));
#350=CARTESIAN_POINT('Ctrl Pts',(-2.2,-3.1,0.));
#351=CARTESIAN_POINT('Ctrl Pts',(-2.2,-3.1,-3.1));
#352=CARTESIAN_POINT('Ctrl Pts',(-2.2,0.,-3.1));
#353=CARTESIAN_POINT('Ctrl Pts',(-2.2,3.1,-3.1));
#354=CARTESIAN_POINT('Ctrl Pts',(-2.2,3.1,0.));
#355=CARTESIAN_POINT('Ctrl Pts',(-2.2,3.1,3.1));
#356=CARTESIAN_POINT('Ctrl Pts',(-2.2,0.,3.1));
#357=CARTESIAN_POINT('Ctrl Pts',(-1.33597312649965,0.,4.23963083533287));
#358=CARTESIAN_POINT('Ctrl Pts',(-1.33597312649965,-4.23963083533287,4.23963083533287));
#359=CARTESIAN_POINT('Ctrl Pts',(-1.33597312649965,-4.23963083533287,0.));
#360=CARTESIAN_POINT('Ctrl Pts',(-1.33597312649965,-4.23963083533287,-4.23963083533287));
#361=CARTESIAN_POINT('Ctrl Pts',(-1.33597312649965,0.,-4.23963083533287));
#362=CARTESIAN_POINT('Ctrl Pts',(-1.33597312649965,4.23963083533287,-4.23963083533287));
#363=CARTESIAN_POINT('Ctrl Pts',(-1.33597312649965,4.23963083533287,0.));
#364=CARTESIAN_POINT('Ctrl Pts',(-1.33597312649965,4.23963083533287,4.23963083533287));
#365=CARTESIAN_POINT('Ctrl Pts',(-1.33597312649965,0.,4.23963083533287));
#366=CARTESIAN_POINT('Ctrl Pts',(2.77555756156289E-16,0.,4.75));
#367=CARTESIAN_POINT('Ctrl Pts',(2.77555756156289E-16,-4.75,4.75));
#368=CARTESIAN_POINT('Ctrl Pts',(2.77555756156289E-16,-4.75,0.));
#369=CARTESIAN_POINT('Ctrl Pts',(2.77555756156289E-16,-4.75,-4.75));
#370=CARTESIAN_POINT('Ctrl Pts',(2.77555756156289E-16,0.,-4.75));
#371=CARTESIAN_POINT('Ctrl Pts',(2.77555756156289E-16,4.75,-4.75));
#372=CARTESIAN_POINT('Ctrl Pts',(2.77555756156289E-16,4.75,0.));
#373=CARTESIAN_POINT('Ctrl Pts',(2.77555756156289E-16,4.75,4.75));
#374=CARTESIAN_POINT('Ctrl Pts',(2.77555756156289E-16,0.,4.75));
#375=CARTESIAN_POINT('',(0.,4.75,0.));
#376=CARTESIAN_POINT('',(0.,-5.81707229594993E-16,4.75));
#377=CARTESIAN_POINT('Origin',(0.,0.,0.));
#378=CARTESIAN_POINT('',(-2.2,-3.79640507735679E-16,3.1));
#379=CARTESIAN_POINT('Origin',(1.78433267845441,-9.70203101929535E-18,0.0792230953941192));
#380=CARTESIAN_POINT('',(-2.2,3.1,0.));
#381=CARTESIAN_POINT('Origin',(-2.2,0.,0.));
#382=CARTESIAN_POINT('',(-2.2,-3.1,-3.79640507735679E-16));
#383=CARTESIAN_POINT('Origin',(-2.2,0.,0.));
#384=CARTESIAN_POINT('Origin',(-2.2,0.,0.));
#385=CARTESIAN_POINT('Origin',(0.,0.,0.));
#386=CARTESIAN_POINT('Origin',(-4.6,0.,0.));
#387=CARTESIAN_POINT('',(-7.,-2.75,-3.36777869765522E-16));
#388=CARTESIAN_POINT('',(-4.6,-2.925,-3.58209188750601E-16));
#389=CARTESIAN_POINT('',(-7.,2.75,0.));
#390=CARTESIAN_POINT('Origin',(-7.,0.,0.));
#391=CARTESIAN_POINT('Origin',(-7.,0.,0.));
#392=CARTESIAN_POINT('Origin',(-8.,0.,0.));
#393=CARTESIAN_POINT('',(-8.,-2.75,-3.36777869765522E-16));
#394=CARTESIAN_POINT('Origin',(-6.8,0.,0.));
#395=CARTESIAN_POINT('',(-6.,-6.73555739531044E-16,5.5));
#396=CARTESIAN_POINT('Origin',(-6.8,-6.73555739531044E-16,5.5));
#397=CARTESIAN_POINT('',(-6.,5.5,0.));
#398=CARTESIAN_POINT('Origin',(-6.,0.,0.));
#399=CARTESIAN_POINT('',(-6.,-5.5,-6.73555739531044E-16));
#400=CARTESIAN_POINT('Origin',(-6.,0.,0.));
#401=CARTESIAN_POINT('Origin',(-6.,0.,0.));
#402=CARTESIAN_POINT('Origin',(-3.,0.,0.));
#403=CARTESIAN_POINT('',(0.,5.5,0.));
#404=CARTESIAN_POINT('',(0.,-5.5,-6.73555739531044E-16));
#405=CARTESIAN_POINT('Origin',(0.,0.,0.));
#406=CARTESIAN_POINT('Origin',(0.,0.,0.));
#407=CARTESIAN_POINT('',(-3.,-5.5,-6.73555739531044E-16));
#408=CARTESIAN_POINT('Origin',(0.,4.75,0.));
#409=UNCERTAINTY_MEASURE_WITH_UNIT(LENGTH_MEASURE(0.01),#413,
'DISTANCE_ACCURACY_VALUE',
'Maximum model space distance between geometric entities at asserted c
onnectivities');
#410=UNCERTAINTY_MEASURE_WITH_UNIT(LENGTH_MEASURE(0.01),#413,
'DISTANCE_ACCURACY_VALUE',
'Maximum model space distance between geometric entities at asserted c
onnectivities');
#411=(
GEOMETRIC_REPRESENTATION_CONTEXT(3)
GLOBAL_UNCERTAINTY_ASSIGNED_CONTEXT((#409))
GLOBAL_UNIT_ASSIGNED_CONTEXT((#413,#415,#416))
REPRESENTATION_CONTEXT('','3D')
);
#412=(
GEOMETRIC_REPRESENTATION_CONTEXT(3)
GLOBAL_UNCERTAINTY_ASSIGNED_CONTEXT((#410))
GLOBAL_UNIT_ASSIGNED_CONTEXT((#413,#415,#416))
REPRESENTATION_CONTEXT('','3D')
);
#413=(
LENGTH_UNIT()
NAMED_UNIT(*)
SI_UNIT(.MILLI.,.METRE.)
);
#414=(
LENGTH_UNIT()
NAMED_UNIT(*)
SI_UNIT(.CENTI.,.METRE.)
);
#415=(
NAMED_UNIT(*)
PLANE_ANGLE_UNIT()
SI_UNIT($,.RADIAN.)
);
#416=(
NAMED_UNIT(*)
SI_UNIT($,.STERADIAN.)
SOLID_ANGLE_UNIT()
);
#417=SHAPE_DEFINITION_REPRESENTATION(#418,#419);
#418=PRODUCT_DEFINITION_SHAPE('',$,#421);
#419=SHAPE_REPRESENTATION('',(#216),#411);
#420=PRODUCT_DEFINITION_CONTEXT('part definition',#425,'design');
#421=PRODUCT_DEFINITION('CBI-ST-5.5-9','CBI-ST-5.5-9',#422,#420);
#422=PRODUCT_DEFINITION_FORMATION('',$,#427);
#423=PRODUCT_RELATED_PRODUCT_CATEGORY('CBI-ST-5.5-9','CBI-ST-5.5-9',(#427));
#424=APPLICATION_PROTOCOL_DEFINITION('international standard',
'automotive_design',2009,#425);
#425=APPLICATION_CONTEXT(
'Core Data for Automotive Mechanical Design Process');
#426=PRODUCT_CONTEXT('part definition',#425,'mechanical');
#427=PRODUCT('CBI-ST-5.5-9','CBI-ST-5.5-9',$,(#426));
#428=PRESENTATION_STYLE_ASSIGNMENT((#429));
#429=SURFACE_STYLE_USAGE(.BOTH.,#432);
#430=SURFACE_STYLE_RENDERING_WITH_PROPERTIES($,#436,(#431));
#431=SURFACE_STYLE_TRANSPARENT(1.);
#432=SURFACE_SIDE_STYLE('',(#433,#430));
#433=SURFACE_STYLE_FILL_AREA(#434);
#434=FILL_AREA_STYLE('',(#435));
#435=FILL_AREA_STYLE_COLOUR('',#436);
#436=COLOUR_RGB('',0.937254901960784,0.937254901960784,0.913725490196078);
ENDSEC;
END-ISO-10303-21;
