ISO-10303-21;
HEADER;
/* Generated by software containing ST-Developer
 * from STEP Tools, Inc. (www.steptools.com) 
 */

FILE_DESCRIPTION(
/* description */ (''),
/* implementation_level */ '2;1');

FILE_NAME(
/* name */ 'G:\\ACCESSORIES\\Ceramic Parts\\Step Files\\CBI-ST-5.2-8.s
tp',
/* time_stamp */ '2018-09-25T15:50:08+01:00',
/* author */ ('paul'),
/* organization */ (''),
/* preprocessor_version */ 'ST-DEVELOPER v17.2',
/* originating_system */ 'Autodesk Inventor 2019',
/* authorisation */ '');

FILE_SCHEMA (('AUTOMOTIVE_DESIGN { 1 0 10303 214 3 1 1 }'));
ENDSEC;

DATA;
#10=MECHANICAL_DESIGN_GEOMETRIC_PRESENTATION_REPRESENTATION('',(#13),#437);
#11=SHAPE_REPRESENTATION_RELATIONSHIP('SRR','None',#444,#12);
#12=ADVANCED_BREP_SHAPE_REPRESENTATION('',(#14),#436);
#13=STYLED_ITEM('',(#453),#14);
#14=MANIFOLD_SOLID_BREP('Solid1',#210);
#15=FACE_BOUND('',#40,.T.);
#16=PLANE('',#264);
#17=TOROIDAL_SURFACE('',#247,2.6,0.7);
#18=TOROIDAL_SURFACE('',#256,4.62016896883014,1.);
#19=CONICAL_SURFACE('',#240,2.725,0.0594536593086569);
#20=CONICAL_SURFACE('',#252,3.50841022337899,0.309123334675747);
#21=(
BOUNDED_SURFACE()
B_SPLINE_SURFACE(2,2,((#355,#356,#357,#358,#359,#360,#361,#362,#363),(#364,
#365,#366,#367,#368,#369,#370,#371,#372),(#373,#374,#375,#376,#377,#378,
#379,#380,#381)),.UNSPECIFIED.,.F.,.T.,.F.)
B_SPLINE_SURFACE_WITH_KNOTS((3,3),(3,2,2,2,3),(-0.836263821483856,-0.244575179057312),
(-3.14159265358979,-1.5707963267949,0.,1.5707963267949,3.14159265358979),
 .UNSPECIFIED.)
GEOMETRIC_REPRESENTATION_ITEM()
RATIONAL_B_SPLINE_SURFACE(((1.,0.707106781186548,1.,0.707106781186548,1.,
0.707106781186548,1.,0.707106781186548,1.),(0.956556323485453,0.676387462923437,
0.956556323485453,0.676387462923437,0.956556323485453,0.676387462923437,
0.956556323485453,0.676387462923437,0.956556323485453),(1.,0.707106781186548,
1.,0.707106781186548,1.,0.707106781186548,1.,0.707106781186548,1.)))
REPRESENTATION_ITEM('')
SURFACE()
);
#22=FACE_OUTER_BOUND('',#31,.T.);
#23=FACE_OUTER_BOUND('',#32,.T.);
#24=FACE_OUTER_BOUND('',#33,.T.);
#25=FACE_OUTER_BOUND('',#34,.T.);
#26=FACE_OUTER_BOUND('',#35,.T.);
#27=FACE_OUTER_BOUND('',#36,.T.);
#28=FACE_OUTER_BOUND('',#37,.T.);
#29=FACE_OUTER_BOUND('',#38,.T.);
#30=FACE_OUTER_BOUND('',#39,.T.);
#31=EDGE_LOOP('',(#134,#135,#136,#137,#138,#139,#140));
#32=EDGE_LOOP('',(#141,#142,#143,#144,#145,#146,#147,#148));
#33=EDGE_LOOP('',(#149,#150,#151,#152,#153,#154,#155));
#34=EDGE_LOOP('',(#156,#157,#158,#159,#160,#161,#162));
#35=EDGE_LOOP('',(#163,#164,#165,#166,#167,#168,#169,#170));
#36=EDGE_LOOP('',(#171,#172,#173,#174,#175,#176,#177,#178));
#37=EDGE_LOOP('',(#179,#180,#181,#182,#183,#184,#185,#186));
#38=EDGE_LOOP('',(#187,#188,#189,#190,#191,#192,#193));
#39=EDGE_LOOP('',(#194,#195));
#40=EDGE_LOOP('',(#196,#197));
#41=LINE('',#348,#46);
#42=LINE('',#391,#47);
#43=LINE('',#397,#48);
#44=LINE('',#417,#49);
#45=LINE('',#432,#50);
#46=VECTOR('',#271,3.75);
#47=VECTOR('',#290,2.725);
#48=VECTOR('',#297,2.6);
#49=VECTOR('',#320,3.50841022337899);
#50=VECTOR('',#339,4.5);
#51=CIRCLE('',#231,3.75);
#52=CIRCLE('',#232,3.75);
#53=CIRCLE('',#233,3.75);
#54=CIRCLE('',#234,3.75);
#55=CIRCLE('',#235,3.75);
#56=CIRCLE('',#236,3.);
#57=CIRCLE('',#237,2.85);
#58=CIRCLE('',#238,2.85);
#59=CIRCLE('',#239,2.85);
#60=CIRCLE('',#241,2.6);
#61=CIRCLE('',#242,2.6);
#62=CIRCLE('',#244,2.6);
#63=CIRCLE('',#245,2.6);
#64=CIRCLE('',#246,2.6);
#65=CIRCLE('',#248,3.26682044675799);
#66=CIRCLE('',#249,3.26682044675799);
#67=CIRCLE('',#250,3.26682044675799);
#68=CIRCLE('',#251,0.7);
#69=CIRCLE('',#253,3.75);
#70=CIRCLE('',#254,3.75);
#71=CIRCLE('',#255,3.75);
#72=CIRCLE('',#257,1.);
#73=CIRCLE('',#258,4.5);
#74=CIRCLE('',#259,4.5);
#75=CIRCLE('',#260,4.5);
#76=CIRCLE('',#262,4.5);
#77=CIRCLE('',#263,4.5);
#78=VERTEX_POINT('',#344);
#79=VERTEX_POINT('',#345);
#80=VERTEX_POINT('',#347);
#81=VERTEX_POINT('',#349);
#82=VERTEX_POINT('',#351);
#83=VERTEX_POINT('',#382);
#84=VERTEX_POINT('',#384);
#85=VERTEX_POINT('',#386);
#86=VERTEX_POINT('',#390);
#87=VERTEX_POINT('',#392);
#88=VERTEX_POINT('',#396);
#89=VERTEX_POINT('',#398);
#90=VERTEX_POINT('',#400);
#91=VERTEX_POINT('',#404);
#92=VERTEX_POINT('',#405);
#93=VERTEX_POINT('',#407);
#94=VERTEX_POINT('',#412);
#95=VERTEX_POINT('',#413);
#96=VERTEX_POINT('',#415);
#97=VERTEX_POINT('',#420);
#98=VERTEX_POINT('',#422);
#99=VERTEX_POINT('',#424);
#100=VERTEX_POINT('',#428);
#101=VERTEX_POINT('',#429);
#102=EDGE_CURVE('',#78,#79,#51,.T.);
#103=EDGE_CURVE('',#79,#80,#41,.T.);
#104=EDGE_CURVE('',#81,#80,#52,.T.);
#105=EDGE_CURVE('',#82,#81,#53,.T.);
#106=EDGE_CURVE('',#80,#82,#54,.T.);
#107=EDGE_CURVE('',#79,#78,#55,.T.);
#108=EDGE_CURVE('',#81,#83,#56,.T.);
#109=EDGE_CURVE('',#84,#83,#57,.T.);
#110=EDGE_CURVE('',#85,#84,#58,.T.);
#111=EDGE_CURVE('',#83,#85,#59,.T.);
#112=EDGE_CURVE('',#85,#86,#42,.T.);
#113=EDGE_CURVE('',#87,#86,#60,.T.);
#114=EDGE_CURVE('',#86,#87,#61,.T.);
#115=EDGE_CURVE('',#86,#88,#43,.T.);
#116=EDGE_CURVE('',#89,#88,#62,.T.);
#117=EDGE_CURVE('',#90,#89,#63,.T.);
#118=EDGE_CURVE('',#88,#90,#64,.T.);
#119=EDGE_CURVE('',#91,#92,#65,.T.);
#120=EDGE_CURVE('',#93,#91,#66,.T.);
#121=EDGE_CURVE('',#92,#93,#67,.T.);
#122=EDGE_CURVE('',#92,#89,#68,.T.);
#123=EDGE_CURVE('',#94,#95,#69,.T.);
#124=EDGE_CURVE('',#96,#94,#70,.T.);
#125=EDGE_CURVE('',#96,#93,#44,.T.);
#126=EDGE_CURVE('',#95,#96,#71,.T.);
#127=EDGE_CURVE('',#95,#97,#72,.T.);
#128=EDGE_CURVE('',#98,#97,#73,.T.);
#129=EDGE_CURVE('',#99,#98,#74,.T.);
#130=EDGE_CURVE('',#97,#99,#75,.T.);
#131=EDGE_CURVE('',#100,#101,#76,.T.);
#132=EDGE_CURVE('',#101,#100,#77,.T.);
#133=EDGE_CURVE('',#101,#99,#45,.T.);
#134=ORIENTED_EDGE('',*,*,#102,.T.);
#135=ORIENTED_EDGE('',*,*,#103,.T.);
#136=ORIENTED_EDGE('',*,*,#104,.F.);
#137=ORIENTED_EDGE('',*,*,#105,.F.);
#138=ORIENTED_EDGE('',*,*,#106,.F.);
#139=ORIENTED_EDGE('',*,*,#103,.F.);
#140=ORIENTED_EDGE('',*,*,#107,.T.);
#141=ORIENTED_EDGE('',*,*,#105,.T.);
#142=ORIENTED_EDGE('',*,*,#108,.T.);
#143=ORIENTED_EDGE('',*,*,#109,.F.);
#144=ORIENTED_EDGE('',*,*,#110,.F.);
#145=ORIENTED_EDGE('',*,*,#111,.F.);
#146=ORIENTED_EDGE('',*,*,#108,.F.);
#147=ORIENTED_EDGE('',*,*,#104,.T.);
#148=ORIENTED_EDGE('',*,*,#106,.T.);
#149=ORIENTED_EDGE('',*,*,#109,.T.);
#150=ORIENTED_EDGE('',*,*,#111,.T.);
#151=ORIENTED_EDGE('',*,*,#112,.T.);
#152=ORIENTED_EDGE('',*,*,#113,.F.);
#153=ORIENTED_EDGE('',*,*,#114,.F.);
#154=ORIENTED_EDGE('',*,*,#112,.F.);
#155=ORIENTED_EDGE('',*,*,#110,.T.);
#156=ORIENTED_EDGE('',*,*,#113,.T.);
#157=ORIENTED_EDGE('',*,*,#115,.T.);
#158=ORIENTED_EDGE('',*,*,#116,.F.);
#159=ORIENTED_EDGE('',*,*,#117,.F.);
#160=ORIENTED_EDGE('',*,*,#118,.F.);
#161=ORIENTED_EDGE('',*,*,#115,.F.);
#162=ORIENTED_EDGE('',*,*,#114,.T.);
#163=ORIENTED_EDGE('',*,*,#119,.F.);
#164=ORIENTED_EDGE('',*,*,#120,.F.);
#165=ORIENTED_EDGE('',*,*,#121,.F.);
#166=ORIENTED_EDGE('',*,*,#122,.T.);
#167=ORIENTED_EDGE('',*,*,#116,.T.);
#168=ORIENTED_EDGE('',*,*,#118,.T.);
#169=ORIENTED_EDGE('',*,*,#117,.T.);
#170=ORIENTED_EDGE('',*,*,#122,.F.);
#171=ORIENTED_EDGE('',*,*,#123,.F.);
#172=ORIENTED_EDGE('',*,*,#124,.F.);
#173=ORIENTED_EDGE('',*,*,#125,.T.);
#174=ORIENTED_EDGE('',*,*,#120,.T.);
#175=ORIENTED_EDGE('',*,*,#119,.T.);
#176=ORIENTED_EDGE('',*,*,#121,.T.);
#177=ORIENTED_EDGE('',*,*,#125,.F.);
#178=ORIENTED_EDGE('',*,*,#126,.F.);
#179=ORIENTED_EDGE('',*,*,#123,.T.);
#180=ORIENTED_EDGE('',*,*,#127,.T.);
#181=ORIENTED_EDGE('',*,*,#128,.F.);
#182=ORIENTED_EDGE('',*,*,#129,.F.);
#183=ORIENTED_EDGE('',*,*,#130,.F.);
#184=ORIENTED_EDGE('',*,*,#127,.F.);
#185=ORIENTED_EDGE('',*,*,#126,.T.);
#186=ORIENTED_EDGE('',*,*,#124,.T.);
#187=ORIENTED_EDGE('',*,*,#131,.F.);
#188=ORIENTED_EDGE('',*,*,#132,.F.);
#189=ORIENTED_EDGE('',*,*,#133,.T.);
#190=ORIENTED_EDGE('',*,*,#129,.T.);
#191=ORIENTED_EDGE('',*,*,#128,.T.);
#192=ORIENTED_EDGE('',*,*,#130,.T.);
#193=ORIENTED_EDGE('',*,*,#133,.F.);
#194=ORIENTED_EDGE('',*,*,#131,.T.);
#195=ORIENTED_EDGE('',*,*,#132,.T.);
#196=ORIENTED_EDGE('',*,*,#102,.F.);
#197=ORIENTED_EDGE('',*,*,#107,.F.);
#198=CYLINDRICAL_SURFACE('',#230,3.75);
#199=CYLINDRICAL_SURFACE('',#243,2.6);
#200=CYLINDRICAL_SURFACE('',#261,4.5);
#201=ADVANCED_FACE('',(#22),#198,.F.);
#202=ADVANCED_FACE('',(#23),#21,.T.);
#203=ADVANCED_FACE('',(#24),#19,.F.);
#204=ADVANCED_FACE('',(#25),#199,.F.);
#205=ADVANCED_FACE('',(#26),#17,.T.);
#206=ADVANCED_FACE('',(#27),#20,.T.);
#207=ADVANCED_FACE('',(#28),#18,.F.);
#208=ADVANCED_FACE('',(#29),#200,.T.);
#209=ADVANCED_FACE('',(#30,#15),#16,.T.);
#210=CLOSED_SHELL('',(#201,#202,#203,#204,#205,#206,#207,#208,#209));
#211=DERIVED_UNIT_ELEMENT(#213,1.);
#212=DERIVED_UNIT_ELEMENT(#439,3.);
#213=(
MASS_UNIT()
NAMED_UNIT(*)
SI_UNIT($,.GRAM.)
);
#214=DERIVED_UNIT((#211,#212));
#215=MEASURE_REPRESENTATION_ITEM('density measure',
POSITIVE_RATIO_MEASURE(1.),#214);
#216=PROPERTY_DEFINITION_REPRESENTATION(#221,#218);
#217=PROPERTY_DEFINITION_REPRESENTATION(#222,#219);
#218=REPRESENTATION('material name',(#220),#436);
#219=REPRESENTATION('density',(#215),#436);
#220=DESCRIPTIVE_REPRESENTATION_ITEM('Steatite','Steatite');
#221=PROPERTY_DEFINITION('material property','material name',#446);
#222=PROPERTY_DEFINITION('material property','density of part',#446);
#223=DATE_TIME_ROLE('creation_date');
#224=APPLIED_DATE_AND_TIME_ASSIGNMENT(#225,#223,(#446));
#225=DATE_AND_TIME(#226,#227);
#226=CALENDAR_DATE(2018,24,9);
#227=LOCAL_TIME(13,42,20.,#228);
#228=COORDINATED_UNIVERSAL_TIME_OFFSET(0,0,.BEHIND.);
#229=AXIS2_PLACEMENT_3D('placement',#342,#265,#266);
#230=AXIS2_PLACEMENT_3D('',#343,#267,#268);
#231=AXIS2_PLACEMENT_3D('',#346,#269,#270);
#232=AXIS2_PLACEMENT_3D('',#350,#272,#273);
#233=AXIS2_PLACEMENT_3D('',#352,#274,#275);
#234=AXIS2_PLACEMENT_3D('',#353,#276,#277);
#235=AXIS2_PLACEMENT_3D('',#354,#278,#279);
#236=AXIS2_PLACEMENT_3D('',#383,#280,#281);
#237=AXIS2_PLACEMENT_3D('',#385,#282,#283);
#238=AXIS2_PLACEMENT_3D('',#387,#284,#285);
#239=AXIS2_PLACEMENT_3D('',#388,#286,#287);
#240=AXIS2_PLACEMENT_3D('',#389,#288,#289);
#241=AXIS2_PLACEMENT_3D('',#393,#291,#292);
#242=AXIS2_PLACEMENT_3D('',#394,#293,#294);
#243=AXIS2_PLACEMENT_3D('',#395,#295,#296);
#244=AXIS2_PLACEMENT_3D('',#399,#298,#299);
#245=AXIS2_PLACEMENT_3D('',#401,#300,#301);
#246=AXIS2_PLACEMENT_3D('',#402,#302,#303);
#247=AXIS2_PLACEMENT_3D('',#403,#304,#305);
#248=AXIS2_PLACEMENT_3D('',#406,#306,#307);
#249=AXIS2_PLACEMENT_3D('',#408,#308,#309);
#250=AXIS2_PLACEMENT_3D('',#409,#310,#311);
#251=AXIS2_PLACEMENT_3D('',#410,#312,#313);
#252=AXIS2_PLACEMENT_3D('',#411,#314,#315);
#253=AXIS2_PLACEMENT_3D('',#414,#316,#317);
#254=AXIS2_PLACEMENT_3D('',#416,#318,#319);
#255=AXIS2_PLACEMENT_3D('',#418,#321,#322);
#256=AXIS2_PLACEMENT_3D('',#419,#323,#324);
#257=AXIS2_PLACEMENT_3D('',#421,#325,#326);
#258=AXIS2_PLACEMENT_3D('',#423,#327,#328);
#259=AXIS2_PLACEMENT_3D('',#425,#329,#330);
#260=AXIS2_PLACEMENT_3D('',#426,#331,#332);
#261=AXIS2_PLACEMENT_3D('',#427,#333,#334);
#262=AXIS2_PLACEMENT_3D('',#430,#335,#336);
#263=AXIS2_PLACEMENT_3D('',#431,#337,#338);
#264=AXIS2_PLACEMENT_3D('',#433,#340,#341);
#265=DIRECTION('axis',(0.,0.,1.));
#266=DIRECTION('refdir',(1.,0.,0.));
#267=DIRECTION('center_axis',(1.,0.,0.));
#268=DIRECTION('ref_axis',(0.,1.,0.));
#269=DIRECTION('center_axis',(1.,0.,0.));
#270=DIRECTION('ref_axis',(0.,0.,-1.));
#271=DIRECTION('',(-1.,0.,0.));
#272=DIRECTION('center_axis',(1.,0.,0.));
#273=DIRECTION('ref_axis',(0.,0.,-1.));
#274=DIRECTION('center_axis',(1.,0.,0.));
#275=DIRECTION('ref_axis',(0.,0.,-1.));
#276=DIRECTION('center_axis',(1.,0.,0.));
#277=DIRECTION('ref_axis',(0.,0.,-1.));
#278=DIRECTION('center_axis',(1.,0.,0.));
#279=DIRECTION('ref_axis',(0.,0.,-1.));
#280=DIRECTION('center_axis',(0.,-1.,-1.22464679914735E-16));
#281=DIRECTION('ref_axis',(0.,-1.22464679914735E-16,1.));
#282=DIRECTION('center_axis',(1.,0.,0.));
#283=DIRECTION('ref_axis',(0.,0.,-1.));
#284=DIRECTION('center_axis',(1.,0.,0.));
#285=DIRECTION('ref_axis',(0.,0.,-1.));
#286=DIRECTION('center_axis',(1.,0.,0.));
#287=DIRECTION('ref_axis',(0.,0.,-1.));
#288=DIRECTION('center_axis',(1.,0.,0.));
#289=DIRECTION('ref_axis',(0.,1.,0.));
#290=DIRECTION('',(-0.998233151734817,0.0594186399842153,7.27668472663583E-18));
#291=DIRECTION('center_axis',(1.,0.,0.));
#292=DIRECTION('ref_axis',(0.,0.,-1.));
#293=DIRECTION('center_axis',(1.,0.,0.));
#294=DIRECTION('ref_axis',(0.,0.,-1.));
#295=DIRECTION('center_axis',(1.,0.,0.));
#296=DIRECTION('ref_axis',(0.,1.,0.));
#297=DIRECTION('',(-1.,0.,0.));
#298=DIRECTION('center_axis',(1.,0.,0.));
#299=DIRECTION('ref_axis',(0.,0.,-1.));
#300=DIRECTION('center_axis',(1.,0.,0.));
#301=DIRECTION('ref_axis',(0.,0.,-1.));
#302=DIRECTION('center_axis',(1.,0.,0.));
#303=DIRECTION('ref_axis',(0.,0.,-1.));
#304=DIRECTION('center_axis',(1.,0.,0.));
#305=DIRECTION('ref_axis',(0.,0.,-1.));
#306=DIRECTION('center_axis',(1.,0.,0.));
#307=DIRECTION('ref_axis',(0.,0.,-1.));
#308=DIRECTION('center_axis',(1.,0.,0.));
#309=DIRECTION('ref_axis',(0.,0.,-1.));
#310=DIRECTION('center_axis',(1.,0.,0.));
#311=DIRECTION('ref_axis',(0.,0.,-1.));
#312=DIRECTION('center_axis',(0.,-1.,-1.22464679914735E-16));
#313=DIRECTION('ref_axis',(0.,-1.22464679914735E-16,1.));
#314=DIRECTION('center_axis',(1.,0.,0.));
#315=DIRECTION('ref_axis',(0.,1.,0.));
#316=DIRECTION('center_axis',(1.,0.,0.));
#317=DIRECTION('ref_axis',(0.,0.,-1.));
#318=DIRECTION('center_axis',(1.,0.,0.));
#319=DIRECTION('ref_axis',(0.,0.,-1.));
#320=DIRECTION('',(-0.952600638225699,0.304223641507349,3.72566508796927E-17));
#321=DIRECTION('center_axis',(1.,0.,0.));
#322=DIRECTION('ref_axis',(0.,0.,-1.));
#323=DIRECTION('center_axis',(1.,0.,0.));
#324=DIRECTION('ref_axis',(0.,0.,-1.));
#325=DIRECTION('center_axis',(0.,-1.,-1.22464679914735E-16));
#326=DIRECTION('ref_axis',(0.,-1.22464679914735E-16,1.));
#327=DIRECTION('center_axis',(1.,0.,0.));
#328=DIRECTION('ref_axis',(0.,0.,-1.));
#329=DIRECTION('center_axis',(1.,0.,0.));
#330=DIRECTION('ref_axis',(0.,0.,-1.));
#331=DIRECTION('center_axis',(1.,0.,0.));
#332=DIRECTION('ref_axis',(0.,0.,-1.));
#333=DIRECTION('center_axis',(1.,0.,0.));
#334=DIRECTION('ref_axis',(0.,1.,0.));
#335=DIRECTION('center_axis',(1.,0.,0.));
#336=DIRECTION('ref_axis',(0.,0.,-1.));
#337=DIRECTION('center_axis',(1.,0.,0.));
#338=DIRECTION('ref_axis',(0.,0.,-1.));
#339=DIRECTION('',(-1.,0.,0.));
#340=DIRECTION('center_axis',(1.,0.,0.));
#341=DIRECTION('ref_axis',(0.,0.,-1.));
#342=CARTESIAN_POINT('',(0.,0.,0.));
#343=CARTESIAN_POINT('Origin',(-0.15,0.,0.));
#344=CARTESIAN_POINT('',(0.,3.75,0.));
#345=CARTESIAN_POINT('',(0.,-3.75,-4.59242549680257E-16));
#346=CARTESIAN_POINT('Origin',(0.,0.,0.));
#347=CARTESIAN_POINT('',(-0.3,-3.75,-4.59242549680257E-16));
#348=CARTESIAN_POINT('',(-0.15,-3.75,-4.59242549680257E-16));
#349=CARTESIAN_POINT('',(-0.3,-4.59242549680257E-16,3.75));
#350=CARTESIAN_POINT('Origin',(-0.3,0.,0.));
#351=CARTESIAN_POINT('',(-0.3,3.75,0.));
#352=CARTESIAN_POINT('Origin',(-0.3,0.,0.));
#353=CARTESIAN_POINT('Origin',(-0.3,0.,0.));
#354=CARTESIAN_POINT('Origin',(0.,0.,0.));
#355=CARTESIAN_POINT('Ctrl Pts',(-1.8,0.,2.85));
#356=CARTESIAN_POINT('Ctrl Pts',(-1.8,-2.85,2.85));
#357=CARTESIAN_POINT('Ctrl Pts',(-1.8,-2.85,0.));
#358=CARTESIAN_POINT('Ctrl Pts',(-1.8,-2.85,-2.85));
#359=CARTESIAN_POINT('Ctrl Pts',(-1.8,0.,-2.85));
#360=CARTESIAN_POINT('Ctrl Pts',(-1.8,2.85,-2.85));
#361=CARTESIAN_POINT('Ctrl Pts',(-1.8,2.85,0.));
#362=CARTESIAN_POINT('Ctrl Pts',(-1.8,2.85,2.85));
#363=CARTESIAN_POINT('Ctrl Pts',(-1.8,0.,2.85));
#364=CARTESIAN_POINT('Ctrl Pts',(-1.18715493213821,0.,3.52859155356368));
#365=CARTESIAN_POINT('Ctrl Pts',(-1.18715493213821,-3.52859155356368,3.52859155356368));
#366=CARTESIAN_POINT('Ctrl Pts',(-1.18715493213821,-3.52859155356368,0.));
#367=CARTESIAN_POINT('Ctrl Pts',(-1.18715493213821,-3.52859155356368,-3.52859155356368));
#368=CARTESIAN_POINT('Ctrl Pts',(-1.18715493213821,0.,-3.52859155356368));
#369=CARTESIAN_POINT('Ctrl Pts',(-1.18715493213821,3.52859155356368,-3.52859155356368));
#370=CARTESIAN_POINT('Ctrl Pts',(-1.18715493213821,3.52859155356368,0.));
#371=CARTESIAN_POINT('Ctrl Pts',(-1.18715493213821,3.52859155356368,3.52859155356368));
#372=CARTESIAN_POINT('Ctrl Pts',(-1.18715493213821,0.,3.52859155356368));
#373=CARTESIAN_POINT('Ctrl Pts',(-0.3,0.,3.75));
#374=CARTESIAN_POINT('Ctrl Pts',(-0.3,-3.75,3.75));
#375=CARTESIAN_POINT('Ctrl Pts',(-0.3,-3.75,0.));
#376=CARTESIAN_POINT('Ctrl Pts',(-0.3,-3.75,-3.75));
#377=CARTESIAN_POINT('Ctrl Pts',(-0.3,0.,-3.75));
#378=CARTESIAN_POINT('Ctrl Pts',(-0.3,3.75,-3.75));
#379=CARTESIAN_POINT('Ctrl Pts',(-0.3,3.75,0.));
#380=CARTESIAN_POINT('Ctrl Pts',(-0.3,3.75,3.75));
#381=CARTESIAN_POINT('Ctrl Pts',(-0.3,0.,3.75));
#382=CARTESIAN_POINT('',(-1.8,-3.49024337756996E-16,2.85));
#383=CARTESIAN_POINT('Origin',(0.426432504781871,-1.02782053528922E-16,
0.839279158696881));
#384=CARTESIAN_POINT('',(-1.8,2.85,0.));
#385=CARTESIAN_POINT('Origin',(-1.8,0.,0.));
#386=CARTESIAN_POINT('',(-1.8,-2.85,-3.49024337756996E-16));
#387=CARTESIAN_POINT('Origin',(-1.8,0.,0.));
#388=CARTESIAN_POINT('Origin',(-1.8,0.,0.));
#389=CARTESIAN_POINT('Origin',(-3.9,0.,0.));
#390=CARTESIAN_POINT('',(-6.,-2.6,-3.18408167778312E-16));
#391=CARTESIAN_POINT('',(-3.9,-2.725,-3.33716252767654E-16));
#392=CARTESIAN_POINT('',(-6.,2.6,0.));
#393=CARTESIAN_POINT('Origin',(-6.,0.,0.));
#394=CARTESIAN_POINT('Origin',(-6.,0.,0.));
#395=CARTESIAN_POINT('Origin',(-7.,0.,0.));
#396=CARTESIAN_POINT('',(-8.,-2.6,-3.18408167778312E-16));
#397=CARTESIAN_POINT('',(-7.,-2.6,-3.18408167778312E-16));
#398=CARTESIAN_POINT('',(-8.,-3.18408167778312E-16,2.6));
#399=CARTESIAN_POINT('Origin',(-8.,0.,0.));
#400=CARTESIAN_POINT('',(-8.,2.6,0.));
#401=CARTESIAN_POINT('Origin',(-8.,0.,0.));
#402=CARTESIAN_POINT('Origin',(-8.,0.,0.));
#403=CARTESIAN_POINT('Origin',(-7.3,0.,0.));
#404=CARTESIAN_POINT('',(-7.51295654905514,3.26682044675799,0.));
#405=CARTESIAN_POINT('',(-7.51295654905514,-4.0007012035113E-16,3.26682044675799));
#406=CARTESIAN_POINT('Origin',(-7.51295654905514,0.,0.));
#407=CARTESIAN_POINT('',(-7.51295654905514,-3.26682044675799,-4.0007012035113E-16));
#408=CARTESIAN_POINT('Origin',(-7.51295654905514,0.,0.));
#409=CARTESIAN_POINT('Origin',(-7.51295654905514,0.,0.));
#410=CARTESIAN_POINT('Origin',(-7.3,-3.18408167778312E-16,2.6));
#411=CARTESIAN_POINT('Origin',(-6.75647827452757,0.,0.));
#412=CARTESIAN_POINT('',(-6.,3.75,0.));
#413=CARTESIAN_POINT('',(-6.,-4.59242549680257E-16,3.75));
#414=CARTESIAN_POINT('Origin',(-6.,0.,0.));
#415=CARTESIAN_POINT('',(-6.,-3.75,-4.59242549680257E-16));
#416=CARTESIAN_POINT('Origin',(-6.,0.,0.));
#417=CARTESIAN_POINT('',(-6.75647827452757,-3.50841022337899,-4.29656335015693E-16));
#418=CARTESIAN_POINT('Origin',(-6.,0.,0.));
#419=CARTESIAN_POINT('Origin',(-6.49275345324522,0.,0.));
#420=CARTESIAN_POINT('',(-5.5,-5.51091059616309E-16,4.5));
#421=CARTESIAN_POINT('Origin',(-6.49275345324522,-5.65807513919776E-16,
4.62016896883014));
#422=CARTESIAN_POINT('',(-5.5,4.5,0.));
#423=CARTESIAN_POINT('Origin',(-5.5,0.,0.));
#424=CARTESIAN_POINT('',(-5.5,-4.5,-5.51091059616309E-16));
#425=CARTESIAN_POINT('Origin',(-5.5,0.,0.));
#426=CARTESIAN_POINT('Origin',(-5.5,0.,0.));
#427=CARTESIAN_POINT('Origin',(-2.75,0.,0.));
#428=CARTESIAN_POINT('',(0.,4.5,0.));
#429=CARTESIAN_POINT('',(0.,-4.5,-5.51091059616309E-16));
#430=CARTESIAN_POINT('Origin',(0.,0.,0.));
#431=CARTESIAN_POINT('Origin',(0.,0.,0.));
#432=CARTESIAN_POINT('',(-2.75,-4.5,-5.51091059616309E-16));
#433=CARTESIAN_POINT('Origin',(0.,3.75,0.));
#434=UNCERTAINTY_MEASURE_WITH_UNIT(LENGTH_MEASURE(0.01),#438,
'DISTANCE_ACCURACY_VALUE',
'Maximum model space distance between geometric entities at asserted c
onnectivities');
#435=UNCERTAINTY_MEASURE_WITH_UNIT(LENGTH_MEASURE(0.01),#438,
'DISTANCE_ACCURACY_VALUE',
'Maximum model space distance between geometric entities at asserted c
onnectivities');
#436=(
GEOMETRIC_REPRESENTATION_CONTEXT(3)
GLOBAL_UNCERTAINTY_ASSIGNED_CONTEXT((#434))
GLOBAL_UNIT_ASSIGNED_CONTEXT((#438,#440,#441))
REPRESENTATION_CONTEXT('','3D')
);
#437=(
GEOMETRIC_REPRESENTATION_CONTEXT(3)
GLOBAL_UNCERTAINTY_ASSIGNED_CONTEXT((#435))
GLOBAL_UNIT_ASSIGNED_CONTEXT((#438,#440,#441))
REPRESENTATION_CONTEXT('','3D')
);
#438=(
LENGTH_UNIT()
NAMED_UNIT(*)
SI_UNIT(.MILLI.,.METRE.)
);
#439=(
LENGTH_UNIT()
NAMED_UNIT(*)
SI_UNIT(.CENTI.,.METRE.)
);
#440=(
NAMED_UNIT(*)
PLANE_ANGLE_UNIT()
SI_UNIT($,.RADIAN.)
);
#441=(
NAMED_UNIT(*)
SI_UNIT($,.STERADIAN.)
SOLID_ANGLE_UNIT()
);
#442=SHAPE_DEFINITION_REPRESENTATION(#443,#444);
#443=PRODUCT_DEFINITION_SHAPE('',$,#446);
#444=SHAPE_REPRESENTATION('',(#229),#436);
#445=PRODUCT_DEFINITION_CONTEXT('part definition',#450,'design');
#446=PRODUCT_DEFINITION('CBI-ST-5.2-8','CBI-ST-5.2-8',#447,#445);
#447=PRODUCT_DEFINITION_FORMATION('',$,#452);
#448=PRODUCT_RELATED_PRODUCT_CATEGORY('CBI-ST-5.2-8','CBI-ST-5.2-8',(#452));
#449=APPLICATION_PROTOCOL_DEFINITION('international standard',
'automotive_design',2009,#450);
#450=APPLICATION_CONTEXT(
'Core Data for Automotive Mechanical Design Process');
#451=PRODUCT_CONTEXT('part definition',#450,'mechanical');
#452=PRODUCT('CBI-ST-5.2-8','CBI-ST-5.2-8',$,(#451));
#453=PRESENTATION_STYLE_ASSIGNMENT((#454));
#454=SURFACE_STYLE_USAGE(.BOTH.,#457);
#455=SURFACE_STYLE_RENDERING_WITH_PROPERTIES($,#461,(#456));
#456=SURFACE_STYLE_TRANSPARENT(1.);
#457=SURFACE_SIDE_STYLE('',(#458,#455));
#458=SURFACE_STYLE_FILL_AREA(#459);
#459=FILL_AREA_STYLE('',(#460));
#460=FILL_AREA_STYLE_COLOUR('',#461);
#461=COLOUR_RGB('',0.937254901960784,0.937254901960784,0.913725490196078);
ENDSEC;
END-ISO-10303-21;
