ISO-10303-21;
HEADER;
/* Generated by software containing ST-Developer
 * from STEP Tools, Inc. (www.steptools.com) 
 */

FILE_DESCRIPTION(
/* description */ (''),
/* implementation_level */ '2;1');

FILE_NAME(
/* name */ 'G:\\ACCESSORIES\\Ceramic Parts\\Step Files\\CBI-ST-3.5-7.s
tp',
/* time_stamp */ '2018-09-25T15:39:24+01:00',
/* author */ ('paul'),
/* organization */ (''),
/* preprocessor_version */ 'ST-DEVELOPER v17.2',
/* originating_system */ 'Autodesk Inventor 2019',
/* authorisation */ '');

FILE_SCHEMA (('AUTOMOTIVE_DESIGN { 1 0 10303 214 3 1 1 }'));
ENDSEC;

DATA;
#10=MECHANICAL_DESIGN_GEOMETRIC_PRESENTATION_REPRESENTATION('',(#13),#432);
#11=SHAPE_REPRESENTATION_RELATIONSHIP('SRR','None',#439,#12);
#12=ADVANCED_BREP_SHAPE_REPRESENTATION('',(#14),#431);
#13=STYLED_ITEM('',(#448),#14);
#14=MANIFOLD_SOLID_BREP('Solid1',#208);
#15=CYLINDRICAL_SURFACE('',#258,1.75);
#16=CYLINDRICAL_SURFACE('',#259,3.5);
#17=(
BOUNDED_SURFACE()
B_SPLINE_SURFACE(2,2,((#376,#377,#378,#379,#380,#381,#382,#383,#384),(#385,
#386,#387,#388,#389,#390,#391,#392,#393),(#394,#395,#396,#397,#398,#399,
#400,#401,#402)),.UNSPECIFIED.,.F.,.T.,.F.)
B_SPLINE_SURFACE_WITH_KNOTS((3,3),(3,2,2,2,3),(-0.722064806469504,-0.205230411532109),
(-3.14159265358979,-1.5707963267949,0.,1.5707963267949,3.14159265358979),
 .UNSPECIFIED.)
GEOMETRIC_REPRESENTATION_ITEM()
RATIONAL_B_SPLINE_SURFACE(((1.,0.707106781186548,1.,0.707106781186548,1.,
0.707106781186548,1.,0.707106781186548,1.),(0.96679567518221,0.683627777943167,
0.96679567518221,0.683627777943167,0.96679567518221,0.683627777943167,0.96679567518221,
0.683627777943167,0.96679567518221),(1.,0.707106781186548,1.,0.707106781186548,
1.,0.707106781186548,1.,0.707106781186548,1.)))
REPRESENTATION_ITEM('')
SURFACE()
);
#18=FACE_BOUND('',#47,.T.);
#19=FACE_BOUND('',#50,.T.);
#20=FACE_BOUND('',#56,.T.);
#21=PLANE('',#239);
#22=PLANE('',#246);
#23=PLANE('',#262);
#24=LINE('',#354,#28);
#25=LINE('',#416,#29);
#26=LINE('',#421,#30);
#27=LINE('',#427,#31);
#28=VECTOR('',#281,2.65);
#29=VECTOR('',#322,1.925);
#30=VECTOR('',#329,1.75);
#31=VECTOR('',#336,3.5);
#32=CONICAL_SURFACE('',#235,2.65,0.283794109208328);
#33=CONICAL_SURFACE('',#255,1.925,0.0918461262647377);
#34=FACE_OUTER_BOUND('',#44,.T.);
#35=FACE_OUTER_BOUND('',#45,.T.);
#36=FACE_OUTER_BOUND('',#46,.T.);
#37=FACE_OUTER_BOUND('',#48,.T.);
#38=FACE_OUTER_BOUND('',#49,.T.);
#39=FACE_OUTER_BOUND('',#51,.T.);
#40=FACE_OUTER_BOUND('',#52,.T.);
#41=FACE_OUTER_BOUND('',#53,.T.);
#42=FACE_OUTER_BOUND('',#54,.T.);
#43=FACE_OUTER_BOUND('',#55,.T.);
#44=EDGE_LOOP('',(#136,#137,#138,#139,#140,#141,#142));
#45=EDGE_LOOP('',(#143,#144,#145,#146,#147,#148,#149,#150));
#46=EDGE_LOOP('',(#151,#152));
#47=EDGE_LOOP('',(#153,#154));
#48=EDGE_LOOP('',(#155,#156,#157,#158,#159,#160,#161));
#49=EDGE_LOOP('',(#162,#163));
#50=EDGE_LOOP('',(#164,#165));
#51=EDGE_LOOP('',(#166,#167,#168,#169,#170,#171,#172));
#52=EDGE_LOOP('',(#173,#174,#175,#176,#177,#178,#179));
#53=EDGE_LOOP('',(#180,#181,#182,#183,#184,#185));
#54=EDGE_LOOP('',(#186,#187,#188,#189,#190,#191));
#55=EDGE_LOOP('',(#192,#193));
#56=EDGE_LOOP('',(#194,#195));
#57=CIRCLE('',#229,2.895);
#58=CIRCLE('',#230,0.5);
#59=CIRCLE('',#231,3.375);
#60=CIRCLE('',#232,3.375);
#61=CIRCLE('',#233,2.895);
#62=CIRCLE('',#234,2.895);
#63=CIRCLE('',#236,2.384);
#64=CIRCLE('',#237,2.384);
#65=CIRCLE('',#238,2.384);
#66=CIRCLE('',#240,3.5);
#67=CIRCLE('',#241,3.5);
#68=CIRCLE('',#243,0.4);
#69=CIRCLE('',#244,2.);
#70=CIRCLE('',#245,2.);
#71=CIRCLE('',#247,1.75);
#72=CIRCLE('',#248,1.75);
#73=CIRCLE('',#249,2.9);
#74=CIRCLE('',#250,3.5);
#75=CIRCLE('',#251,2.1);
#76=CIRCLE('',#252,2.1);
#77=CIRCLE('',#253,2.1);
#78=CIRCLE('',#254,2.9);
#79=CIRCLE('',#256,1.75);
#80=CIRCLE('',#257,1.75);
#81=CIRCLE('',#260,3.5);
#82=CIRCLE('',#261,3.5);
#83=VERTEX_POINT('',#341);
#84=VERTEX_POINT('',#342);
#85=VERTEX_POINT('',#344);
#86=VERTEX_POINT('',#346);
#87=VERTEX_POINT('',#349);
#88=VERTEX_POINT('',#353);
#89=VERTEX_POINT('',#355);
#90=VERTEX_POINT('',#357);
#91=VERTEX_POINT('',#361);
#92=VERTEX_POINT('',#362);
#93=VERTEX_POINT('',#366);
#94=VERTEX_POINT('',#368);
#95=VERTEX_POINT('',#372);
#96=VERTEX_POINT('',#373);
#97=VERTEX_POINT('',#403);
#98=VERTEX_POINT('',#404);
#99=VERTEX_POINT('',#406);
#100=VERTEX_POINT('',#408);
#101=VERTEX_POINT('',#410);
#102=VERTEX_POINT('',#415);
#103=VERTEX_POINT('',#417);
#104=VERTEX_POINT('',#423);
#105=VERTEX_POINT('',#424);
#106=EDGE_CURVE('',#83,#84,#57,.T.);
#107=EDGE_CURVE('',#84,#85,#58,.T.);
#108=EDGE_CURVE('',#85,#86,#59,.T.);
#109=EDGE_CURVE('',#86,#85,#60,.T.);
#110=EDGE_CURVE('',#84,#87,#61,.T.);
#111=EDGE_CURVE('',#87,#83,#62,.T.);
#112=EDGE_CURVE('',#87,#88,#24,.T.);
#113=EDGE_CURVE('',#89,#88,#63,.T.);
#114=EDGE_CURVE('',#90,#89,#64,.T.);
#115=EDGE_CURVE('',#88,#90,#65,.T.);
#116=EDGE_CURVE('',#91,#92,#66,.T.);
#117=EDGE_CURVE('',#92,#91,#67,.T.);
#118=EDGE_CURVE('',#90,#93,#68,.T.);
#119=EDGE_CURVE('',#93,#94,#69,.T.);
#120=EDGE_CURVE('',#94,#93,#70,.T.);
#121=EDGE_CURVE('',#95,#96,#71,.T.);
#122=EDGE_CURVE('',#96,#95,#72,.T.);
#123=EDGE_CURVE('',#97,#98,#73,.T.);
#124=EDGE_CURVE('',#98,#99,#74,.T.);
#125=EDGE_CURVE('',#100,#99,#75,.T.);
#126=EDGE_CURVE('',#101,#100,#76,.T.);
#127=EDGE_CURVE('',#99,#101,#77,.T.);
#128=EDGE_CURVE('',#98,#97,#78,.T.);
#129=EDGE_CURVE('',#101,#102,#25,.T.);
#130=EDGE_CURVE('',#103,#102,#79,.T.);
#131=EDGE_CURVE('',#102,#103,#80,.T.);
#132=EDGE_CURVE('',#102,#96,#26,.T.);
#133=EDGE_CURVE('',#104,#105,#81,.T.);
#134=EDGE_CURVE('',#105,#104,#82,.T.);
#135=EDGE_CURVE('',#105,#92,#27,.T.);
#136=ORIENTED_EDGE('',*,*,#106,.T.);
#137=ORIENTED_EDGE('',*,*,#107,.T.);
#138=ORIENTED_EDGE('',*,*,#108,.T.);
#139=ORIENTED_EDGE('',*,*,#109,.T.);
#140=ORIENTED_EDGE('',*,*,#107,.F.);
#141=ORIENTED_EDGE('',*,*,#110,.T.);
#142=ORIENTED_EDGE('',*,*,#111,.T.);
#143=ORIENTED_EDGE('',*,*,#106,.F.);
#144=ORIENTED_EDGE('',*,*,#111,.F.);
#145=ORIENTED_EDGE('',*,*,#112,.T.);
#146=ORIENTED_EDGE('',*,*,#113,.F.);
#147=ORIENTED_EDGE('',*,*,#114,.F.);
#148=ORIENTED_EDGE('',*,*,#115,.F.);
#149=ORIENTED_EDGE('',*,*,#112,.F.);
#150=ORIENTED_EDGE('',*,*,#110,.F.);
#151=ORIENTED_EDGE('',*,*,#116,.F.);
#152=ORIENTED_EDGE('',*,*,#117,.F.);
#153=ORIENTED_EDGE('',*,*,#109,.F.);
#154=ORIENTED_EDGE('',*,*,#108,.F.);
#155=ORIENTED_EDGE('',*,*,#113,.T.);
#156=ORIENTED_EDGE('',*,*,#115,.T.);
#157=ORIENTED_EDGE('',*,*,#118,.T.);
#158=ORIENTED_EDGE('',*,*,#119,.T.);
#159=ORIENTED_EDGE('',*,*,#120,.T.);
#160=ORIENTED_EDGE('',*,*,#118,.F.);
#161=ORIENTED_EDGE('',*,*,#114,.T.);
#162=ORIENTED_EDGE('',*,*,#120,.F.);
#163=ORIENTED_EDGE('',*,*,#119,.F.);
#164=ORIENTED_EDGE('',*,*,#121,.T.);
#165=ORIENTED_EDGE('',*,*,#122,.T.);
#166=ORIENTED_EDGE('',*,*,#123,.T.);
#167=ORIENTED_EDGE('',*,*,#124,.T.);
#168=ORIENTED_EDGE('',*,*,#125,.F.);
#169=ORIENTED_EDGE('',*,*,#126,.F.);
#170=ORIENTED_EDGE('',*,*,#127,.F.);
#171=ORIENTED_EDGE('',*,*,#124,.F.);
#172=ORIENTED_EDGE('',*,*,#128,.T.);
#173=ORIENTED_EDGE('',*,*,#125,.T.);
#174=ORIENTED_EDGE('',*,*,#127,.T.);
#175=ORIENTED_EDGE('',*,*,#129,.T.);
#176=ORIENTED_EDGE('',*,*,#130,.F.);
#177=ORIENTED_EDGE('',*,*,#131,.F.);
#178=ORIENTED_EDGE('',*,*,#129,.F.);
#179=ORIENTED_EDGE('',*,*,#126,.T.);
#180=ORIENTED_EDGE('',*,*,#130,.T.);
#181=ORIENTED_EDGE('',*,*,#132,.T.);
#182=ORIENTED_EDGE('',*,*,#121,.F.);
#183=ORIENTED_EDGE('',*,*,#122,.F.);
#184=ORIENTED_EDGE('',*,*,#132,.F.);
#185=ORIENTED_EDGE('',*,*,#131,.T.);
#186=ORIENTED_EDGE('',*,*,#133,.F.);
#187=ORIENTED_EDGE('',*,*,#134,.F.);
#188=ORIENTED_EDGE('',*,*,#135,.T.);
#189=ORIENTED_EDGE('',*,*,#117,.T.);
#190=ORIENTED_EDGE('',*,*,#116,.T.);
#191=ORIENTED_EDGE('',*,*,#135,.F.);
#192=ORIENTED_EDGE('',*,*,#133,.T.);
#193=ORIENTED_EDGE('',*,*,#134,.T.);
#194=ORIENTED_EDGE('',*,*,#123,.F.);
#195=ORIENTED_EDGE('',*,*,#128,.F.);
#196=TOROIDAL_SURFACE('',#228,3.375,0.5);
#197=TOROIDAL_SURFACE('',#242,2.,0.4);
#198=ADVANCED_FACE('',(#34),#196,.F.);
#199=ADVANCED_FACE('',(#35),#32,.T.);
#200=ADVANCED_FACE('',(#36,#18),#21,.T.);
#201=ADVANCED_FACE('',(#37),#197,.T.);
#202=ADVANCED_FACE('',(#38,#19),#22,.T.);
#203=ADVANCED_FACE('',(#39),#17,.T.);
#204=ADVANCED_FACE('',(#40),#33,.F.);
#205=ADVANCED_FACE('',(#41),#15,.F.);
#206=ADVANCED_FACE('',(#42),#16,.T.);
#207=ADVANCED_FACE('',(#43,#20),#23,.T.);
#208=CLOSED_SHELL('',(#198,#199,#200,#201,#202,#203,#204,#205,#206,#207));
#209=DERIVED_UNIT_ELEMENT(#211,1.);
#210=DERIVED_UNIT_ELEMENT(#434,3.);
#211=(
MASS_UNIT()
NAMED_UNIT(*)
SI_UNIT($,.GRAM.)
);
#212=DERIVED_UNIT((#209,#210));
#213=MEASURE_REPRESENTATION_ITEM('density measure',
POSITIVE_RATIO_MEASURE(1.),#212);
#214=PROPERTY_DEFINITION_REPRESENTATION(#219,#216);
#215=PROPERTY_DEFINITION_REPRESENTATION(#220,#217);
#216=REPRESENTATION('material name',(#218),#431);
#217=REPRESENTATION('density',(#213),#431);
#218=DESCRIPTIVE_REPRESENTATION_ITEM('Steatite','Steatite');
#219=PROPERTY_DEFINITION('material property','material name',#441);
#220=PROPERTY_DEFINITION('material property','density of part',#441);
#221=DATE_TIME_ROLE('creation_date');
#222=APPLIED_DATE_AND_TIME_ASSIGNMENT(#223,#221,(#441));
#223=DATE_AND_TIME(#224,#225);
#224=CALENDAR_DATE(2018,24,9);
#225=LOCAL_TIME(13,42,20.,#226);
#226=COORDINATED_UNIVERSAL_TIME_OFFSET(0,0,.BEHIND.);
#227=AXIS2_PLACEMENT_3D('placement',#339,#263,#264);
#228=AXIS2_PLACEMENT_3D('',#340,#265,#266);
#229=AXIS2_PLACEMENT_3D('',#343,#267,#268);
#230=AXIS2_PLACEMENT_3D('',#345,#269,#270);
#231=AXIS2_PLACEMENT_3D('',#347,#271,#272);
#232=AXIS2_PLACEMENT_3D('',#348,#273,#274);
#233=AXIS2_PLACEMENT_3D('',#350,#275,#276);
#234=AXIS2_PLACEMENT_3D('',#351,#277,#278);
#235=AXIS2_PLACEMENT_3D('',#352,#279,#280);
#236=AXIS2_PLACEMENT_3D('',#356,#282,#283);
#237=AXIS2_PLACEMENT_3D('',#358,#284,#285);
#238=AXIS2_PLACEMENT_3D('',#359,#286,#287);
#239=AXIS2_PLACEMENT_3D('',#360,#288,#289);
#240=AXIS2_PLACEMENT_3D('',#363,#290,#291);
#241=AXIS2_PLACEMENT_3D('',#364,#292,#293);
#242=AXIS2_PLACEMENT_3D('',#365,#294,#295);
#243=AXIS2_PLACEMENT_3D('',#367,#296,#297);
#244=AXIS2_PLACEMENT_3D('',#369,#298,#299);
#245=AXIS2_PLACEMENT_3D('',#370,#300,#301);
#246=AXIS2_PLACEMENT_3D('',#371,#302,#303);
#247=AXIS2_PLACEMENT_3D('',#374,#304,#305);
#248=AXIS2_PLACEMENT_3D('',#375,#306,#307);
#249=AXIS2_PLACEMENT_3D('',#405,#308,#309);
#250=AXIS2_PLACEMENT_3D('',#407,#310,#311);
#251=AXIS2_PLACEMENT_3D('',#409,#312,#313);
#252=AXIS2_PLACEMENT_3D('',#411,#314,#315);
#253=AXIS2_PLACEMENT_3D('',#412,#316,#317);
#254=AXIS2_PLACEMENT_3D('',#413,#318,#319);
#255=AXIS2_PLACEMENT_3D('',#414,#320,#321);
#256=AXIS2_PLACEMENT_3D('',#418,#323,#324);
#257=AXIS2_PLACEMENT_3D('',#419,#325,#326);
#258=AXIS2_PLACEMENT_3D('',#420,#327,#328);
#259=AXIS2_PLACEMENT_3D('',#422,#330,#331);
#260=AXIS2_PLACEMENT_3D('',#425,#332,#333);
#261=AXIS2_PLACEMENT_3D('',#426,#334,#335);
#262=AXIS2_PLACEMENT_3D('',#428,#337,#338);
#263=DIRECTION('axis',(0.,0.,1.));
#264=DIRECTION('refdir',(1.,0.,0.));
#265=DIRECTION('center_axis',(1.,0.,0.));
#266=DIRECTION('ref_axis',(0.,0.,-1.));
#267=DIRECTION('center_axis',(1.,0.,0.));
#268=DIRECTION('ref_axis',(0.,-1.,3.06161699786838E-17));
#269=DIRECTION('center_axis',(0.,-1.,-1.22464679914735E-16));
#270=DIRECTION('ref_axis',(0.,-1.22464679914735E-16,1.));
#271=DIRECTION('center_axis',(-1.,0.,0.));
#272=DIRECTION('ref_axis',(0.,-1.,1.83697019872103E-16));
#273=DIRECTION('center_axis',(-1.,0.,0.));
#274=DIRECTION('ref_axis',(0.,-1.,1.83697019872103E-16));
#275=DIRECTION('center_axis',(1.,0.,0.));
#276=DIRECTION('ref_axis',(0.,-1.,3.06161699786838E-17));
#277=DIRECTION('center_axis',(1.,0.,0.));
#278=DIRECTION('ref_axis',(0.,-1.,3.06161699786838E-17));
#279=DIRECTION('center_axis',(1.,0.,0.));
#280=DIRECTION('ref_axis',(0.,1.,0.));
#281=DIRECTION('',(-0.96,0.28,3.42901103761259E-17));
#282=DIRECTION('center_axis',(-1.,0.,0.));
#283=DIRECTION('ref_axis',(0.,-1.,3.06161699786838E-17));
#284=DIRECTION('center_axis',(-1.,0.,0.));
#285=DIRECTION('ref_axis',(0.,-1.,3.06161699786838E-17));
#286=DIRECTION('center_axis',(-1.,0.,0.));
#287=DIRECTION('ref_axis',(0.,-1.,3.06161699786838E-17));
#288=DIRECTION('center_axis',(-1.,0.,0.));
#289=DIRECTION('ref_axis',(0.,0.,1.));
#290=DIRECTION('center_axis',(1.,0.,0.));
#291=DIRECTION('ref_axis',(0.,0.,-1.));
#292=DIRECTION('center_axis',(1.,0.,0.));
#293=DIRECTION('ref_axis',(0.,0.,-1.));
#294=DIRECTION('center_axis',(1.,0.,0.));
#295=DIRECTION('ref_axis',(0.,0.,-1.));
#296=DIRECTION('center_axis',(0.,-1.,-1.22464679914735E-16));
#297=DIRECTION('ref_axis',(0.,-1.22464679914735E-16,1.));
#298=DIRECTION('center_axis',(1.,0.,0.));
#299=DIRECTION('ref_axis',(0.,-1.,1.83697019872103E-16));
#300=DIRECTION('center_axis',(1.,0.,0.));
#301=DIRECTION('ref_axis',(0.,-1.,1.83697019872103E-16));
#302=DIRECTION('center_axis',(-1.,0.,0.));
#303=DIRECTION('ref_axis',(0.,0.,1.));
#304=DIRECTION('center_axis',(1.,0.,0.));
#305=DIRECTION('ref_axis',(0.,0.,-1.));
#306=DIRECTION('center_axis',(1.,0.,0.));
#307=DIRECTION('ref_axis',(0.,0.,-1.));
#308=DIRECTION('center_axis',(1.,0.,0.));
#309=DIRECTION('ref_axis',(0.,0.,-1.));
#310=DIRECTION('center_axis',(0.,-1.,-1.22464679914735E-16));
#311=DIRECTION('ref_axis',(0.,-1.22464679914735E-16,1.));
#312=DIRECTION('center_axis',(1.,0.,0.));
#313=DIRECTION('ref_axis',(0.,0.,-1.));
#314=DIRECTION('center_axis',(1.,0.,0.));
#315=DIRECTION('ref_axis',(0.,0.,-1.));
#316=DIRECTION('center_axis',(1.,0.,0.));
#317=DIRECTION('ref_axis',(0.,0.,-1.));
#318=DIRECTION('center_axis',(1.,0.,0.));
#319=DIRECTION('ref_axis',(0.,0.,-1.));
#320=DIRECTION('center_axis',(1.,0.,0.));
#321=DIRECTION('ref_axis',(0.,1.,0.));
#322=DIRECTION('',(-0.995785108762236,0.0917170494912588,1.12320991086709E-17));
#323=DIRECTION('center_axis',(1.,0.,0.));
#324=DIRECTION('ref_axis',(0.,0.,-1.));
#325=DIRECTION('center_axis',(1.,0.,0.));
#326=DIRECTION('ref_axis',(0.,0.,-1.));
#327=DIRECTION('center_axis',(1.,0.,0.));
#328=DIRECTION('ref_axis',(0.,1.,0.));
#329=DIRECTION('',(-1.,0.,0.));
#330=DIRECTION('center_axis',(1.,0.,0.));
#331=DIRECTION('ref_axis',(0.,1.,0.));
#332=DIRECTION('center_axis',(1.,0.,0.));
#333=DIRECTION('ref_axis',(0.,0.,-1.));
#334=DIRECTION('center_axis',(1.,0.,0.));
#335=DIRECTION('ref_axis',(0.,0.,-1.));
#336=DIRECTION('',(-1.,0.,0.));
#337=DIRECTION('center_axis',(1.,0.,0.));
#338=DIRECTION('ref_axis',(0.,0.,-1.));
#339=CARTESIAN_POINT('',(0.,0.,0.));
#340=CARTESIAN_POINT('Origin',(-5.1,0.,0.));
#341=CARTESIAN_POINT('',(-4.96,2.895,-1.77267624176579E-16));
#342=CARTESIAN_POINT('',(-4.96,-3.54535248353159E-16,2.895));
#343=CARTESIAN_POINT('Origin',(-4.96,0.,-4.43169060441448E-16));
#344=CARTESIAN_POINT('',(-4.6,-4.13318294712232E-16,3.375));
#345=CARTESIAN_POINT('Origin',(-5.1,-4.13318294712232E-16,3.375));
#346=CARTESIAN_POINT('',(-4.6,3.375,-1.03329573678058E-15));
#347=CARTESIAN_POINT('Origin',(-4.6,0.,0.));
#348=CARTESIAN_POINT('Origin',(-4.6,0.,0.));
#349=CARTESIAN_POINT('',(-4.96,-2.895,-3.54535248353159E-16));
#350=CARTESIAN_POINT('Origin',(-4.96,0.,-4.43169060441448E-16));
#351=CARTESIAN_POINT('Origin',(-4.96,0.,-4.43169060441448E-16));
#352=CARTESIAN_POINT('Origin',(-5.8,0.,0.));
#353=CARTESIAN_POINT('',(-6.712,-2.384,-2.91955796916729E-16));
#354=CARTESIAN_POINT('',(-5.8,-2.65,-3.24531401774049E-16));
#355=CARTESIAN_POINT('',(-6.712,2.384,-7.29889492291822E-16));
#356=CARTESIAN_POINT('Origin',(-6.712,0.,-3.64944746145911E-16));
#357=CARTESIAN_POINT('',(-6.712,-2.91955796916729E-16,2.384));
#358=CARTESIAN_POINT('Origin',(-6.712,0.,-3.64944746145911E-16));
#359=CARTESIAN_POINT('Origin',(-6.712,0.,-3.64944746145911E-16));
#360=CARTESIAN_POINT('Origin',(-4.6,3.5,0.));
#361=CARTESIAN_POINT('',(-4.6,3.5,0.));
#362=CARTESIAN_POINT('',(-4.6,-3.5,-4.28626379701574E-16));
#363=CARTESIAN_POINT('Origin',(-4.6,0.,0.));
#364=CARTESIAN_POINT('Origin',(-4.6,0.,0.));
#365=CARTESIAN_POINT('Origin',(-6.6,0.,0.));
#366=CARTESIAN_POINT('',(-7.,-2.44929359829471E-16,2.));
#367=CARTESIAN_POINT('Origin',(-6.6,-2.44929359829471E-16,2.));
#368=CARTESIAN_POINT('',(-7.,2.,-1.22464679914735E-16));
#369=CARTESIAN_POINT('Origin',(-7.,0.,0.));
#370=CARTESIAN_POINT('Origin',(-7.,0.,0.));
#371=CARTESIAN_POINT('Origin',(-7.,2.3,0.));
#372=CARTESIAN_POINT('',(-7.,1.75,0.));
#373=CARTESIAN_POINT('',(-7.,-1.75,-2.14313189850787E-16));
#374=CARTESIAN_POINT('Origin',(-7.,0.,0.));
#375=CARTESIAN_POINT('Origin',(-7.,0.,0.));
#376=CARTESIAN_POINT('Ctrl Pts',(-1.6,0.,2.1));
#377=CARTESIAN_POINT('Ctrl Pts',(-1.6,-2.1,2.1));
#378=CARTESIAN_POINT('Ctrl Pts',(-1.6,-2.1,0.));
#379=CARTESIAN_POINT('Ctrl Pts',(-1.6,-2.1,-2.1));
#380=CARTESIAN_POINT('Ctrl Pts',(-1.6,0.,-2.1));
#381=CARTESIAN_POINT('Ctrl Pts',(-1.6,2.1,-2.1));
#382=CARTESIAN_POINT('Ctrl Pts',(-1.6,2.1,0.));
#383=CARTESIAN_POINT('Ctrl Pts',(-1.6,2.1,2.1));
#384=CARTESIAN_POINT('Ctrl Pts',(-1.6,0.,2.1));
#385=CARTESIAN_POINT('Ctrl Pts',(-0.905730976072813,0.,2.71146195214563));
#386=CARTESIAN_POINT('Ctrl Pts',(-0.905730976072813,-2.71146195214563,2.71146195214563));
#387=CARTESIAN_POINT('Ctrl Pts',(-0.905730976072813,-2.71146195214563,0.));
#388=CARTESIAN_POINT('Ctrl Pts',(-0.905730976072813,-2.71146195214563,-2.71146195214563));
#389=CARTESIAN_POINT('Ctrl Pts',(-0.905730976072813,0.,-2.71146195214563));
#390=CARTESIAN_POINT('Ctrl Pts',(-0.905730976072813,2.71146195214563,-2.71146195214563));
#391=CARTESIAN_POINT('Ctrl Pts',(-0.905730976072813,2.71146195214563,0.));
#392=CARTESIAN_POINT('Ctrl Pts',(-0.905730976072813,2.71146195214563,2.71146195214563));
#393=CARTESIAN_POINT('Ctrl Pts',(-0.905730976072813,0.,2.71146195214563));
#394=CARTESIAN_POINT('Ctrl Pts',(0.,0.,2.9));
#395=CARTESIAN_POINT('Ctrl Pts',(0.,-2.9,2.9));
#396=CARTESIAN_POINT('Ctrl Pts',(0.,-2.9,0.));
#397=CARTESIAN_POINT('Ctrl Pts',(0.,-2.9,-2.9));
#398=CARTESIAN_POINT('Ctrl Pts',(0.,0.,-2.9));
#399=CARTESIAN_POINT('Ctrl Pts',(0.,2.9,-2.9));
#400=CARTESIAN_POINT('Ctrl Pts',(0.,2.9,0.));
#401=CARTESIAN_POINT('Ctrl Pts',(0.,2.9,2.9));
#402=CARTESIAN_POINT('Ctrl Pts',(0.,0.,2.9));
#403=CARTESIAN_POINT('',(-1.38777878078145E-16,2.9,0.));
#404=CARTESIAN_POINT('',(-1.38777878078145E-16,-3.55147571752733E-16,2.9));
#405=CARTESIAN_POINT('Origin',(-1.38777878078145E-16,0.,0.));
#406=CARTESIAN_POINT('',(-1.6,-2.57175827820944E-16,2.1));
#407=CARTESIAN_POINT('Origin',(0.713274595042158,6.44836780230381E-17,-0.526549190084309));
#408=CARTESIAN_POINT('',(-1.6,2.1,0.));
#409=CARTESIAN_POINT('Origin',(-1.6,0.,0.));
#410=CARTESIAN_POINT('',(-1.6,-2.1,-2.57175827820944E-16));
#411=CARTESIAN_POINT('Origin',(-1.6,0.,0.));
#412=CARTESIAN_POINT('Origin',(-1.6,0.,0.));
#413=CARTESIAN_POINT('Origin',(-1.38777878078145E-16,0.,0.));
#414=CARTESIAN_POINT('Origin',(-3.5,0.,0.));
#415=CARTESIAN_POINT('',(-5.4,-1.75,-2.14313189850787E-16));
#416=CARTESIAN_POINT('',(-3.5,-1.925,-2.35744508835866E-16));
#417=CARTESIAN_POINT('',(-5.4,1.75,0.));
#418=CARTESIAN_POINT('Origin',(-5.4,0.,0.));
#419=CARTESIAN_POINT('Origin',(-5.4,0.,0.));
#420=CARTESIAN_POINT('Origin',(-6.2,0.,0.));
#421=CARTESIAN_POINT('',(-6.2,-1.75,-2.14313189850787E-16));
#422=CARTESIAN_POINT('Origin',(-2.3,0.,0.));
#423=CARTESIAN_POINT('',(0.,3.5,0.));
#424=CARTESIAN_POINT('',(0.,-3.5,-4.28626379701574E-16));
#425=CARTESIAN_POINT('Origin',(0.,0.,0.));
#426=CARTESIAN_POINT('Origin',(0.,0.,0.));
#427=CARTESIAN_POINT('',(-2.3,-3.5,-4.28626379701574E-16));
#428=CARTESIAN_POINT('Origin',(-1.38777878078145E-16,2.9,0.));
#429=UNCERTAINTY_MEASURE_WITH_UNIT(LENGTH_MEASURE(0.01),#433,
'DISTANCE_ACCURACY_VALUE',
'Maximum model space distance between geometric entities at asserted c
onnectivities');
#430=UNCERTAINTY_MEASURE_WITH_UNIT(LENGTH_MEASURE(0.01),#433,
'DISTANCE_ACCURACY_VALUE',
'Maximum model space distance between geometric entities at asserted c
onnectivities');
#431=(
GEOMETRIC_REPRESENTATION_CONTEXT(3)
GLOBAL_UNCERTAINTY_ASSIGNED_CONTEXT((#429))
GLOBAL_UNIT_ASSIGNED_CONTEXT((#433,#435,#436))
REPRESENTATION_CONTEXT('','3D')
);
#432=(
GEOMETRIC_REPRESENTATION_CONTEXT(3)
GLOBAL_UNCERTAINTY_ASSIGNED_CONTEXT((#430))
GLOBAL_UNIT_ASSIGNED_CONTEXT((#433,#435,#436))
REPRESENTATION_CONTEXT('','3D')
);
#433=(
LENGTH_UNIT()
NAMED_UNIT(*)
SI_UNIT(.MILLI.,.METRE.)
);
#434=(
LENGTH_UNIT()
NAMED_UNIT(*)
SI_UNIT(.CENTI.,.METRE.)
);
#435=(
NAMED_UNIT(*)
PLANE_ANGLE_UNIT()
SI_UNIT($,.RADIAN.)
);
#436=(
NAMED_UNIT(*)
SI_UNIT($,.STERADIAN.)
SOLID_ANGLE_UNIT()
);
#437=SHAPE_DEFINITION_REPRESENTATION(#438,#439);
#438=PRODUCT_DEFINITION_SHAPE('',$,#441);
#439=SHAPE_REPRESENTATION('',(#227),#431);
#440=PRODUCT_DEFINITION_CONTEXT('part definition',#445,'design');
#441=PRODUCT_DEFINITION('CBI-ST-3.5-7','CBI-ST-3.5-7',#442,#440);
#442=PRODUCT_DEFINITION_FORMATION('',$,#447);
#443=PRODUCT_RELATED_PRODUCT_CATEGORY('CBI-ST-3.5-7','CBI-ST-3.5-7',(#447));
#444=APPLICATION_PROTOCOL_DEFINITION('international standard',
'automotive_design',2009,#445);
#445=APPLICATION_CONTEXT(
'Core Data for Automotive Mechanical Design Process');
#446=PRODUCT_CONTEXT('part definition',#445,'mechanical');
#447=PRODUCT('CBI-ST-3.5-7','CBI-ST-3.5-7',$,(#446));
#448=PRESENTATION_STYLE_ASSIGNMENT((#449));
#449=SURFACE_STYLE_USAGE(.BOTH.,#452);
#450=SURFACE_STYLE_RENDERING_WITH_PROPERTIES($,#456,(#451));
#451=SURFACE_STYLE_TRANSPARENT(1.);
#452=SURFACE_SIDE_STYLE('',(#453,#450));
#453=SURFACE_STYLE_FILL_AREA(#454);
#454=FILL_AREA_STYLE('',(#455));
#455=FILL_AREA_STYLE_COLOUR('',#456);
#456=COLOUR_RGB('',0.937254901960784,0.937254901960784,0.913725490196078);
ENDSEC;
END-ISO-10303-21;
