ISO-10303-21;
HEADER;
/* Generated by software containing ST-Developer
 * from STEP Tools, Inc. (www.steptools.com) 
 */

FILE_DESCRIPTION(
/* description */ (''),
/* implementation_level */ '2;1');

FILE_NAME(
/* name */ 'G:\\ACCESSORIES\\Ceramic Parts\\Step Files\\CBI-ST-2-6.stp',

/* time_stamp */ '2018-09-25T15:22:25+01:00',
/* author */ ('paul'),
/* organization */ (''),
/* preprocessor_version */ 'ST-DEVELOPER v17.2',
/* originating_system */ 'Autodesk Inventor 2019',
/* authorisation */ '');

FILE_SCHEMA (('AUTOMOTIVE_DESIGN { 1 0 10303 214 3 1 1 }'));
ENDSEC;

DATA;
#10=MECHANICAL_DESIGN_GEOMETRIC_PRESENTATION_REPRESENTATION('',(#13),#397);
#11=SHAPE_REPRESENTATION_RELATIONSHIP('SRR','None',#404,#12);
#12=ADVANCED_BREP_SHAPE_REPRESENTATION('',(#14),#396);
#13=STYLED_ITEM('',(#413),#14);
#14=MANIFOLD_SOLID_BREP('Solid1',#189);
#15=CYLINDRICAL_SURFACE('',#240,3.);
#16=(
BOUNDED_SURFACE()
B_SPLINE_SURFACE(2,2,((#356,#357,#358,#359,#360,#361,#362,#363,#364),(#365,
#366,#367,#368,#369,#370,#371,#372,#373),(#374,#375,#376,#377,#378,#379,
#380,#381,#382)),.UNSPECIFIED.,.F.,.T.,.F.)
B_SPLINE_SURFACE_WITH_KNOTS((3,3),(3,2,2,2,3),(-1.28895602976526,-0.595044050993669),
(-3.14159265358979,-1.5707963267949,0.,1.5707963267949,3.14159265358979),
 .UNSPECIFIED.)
GEOMETRIC_REPRESENTATION_ITEM()
RATIONAL_B_SPLINE_SURFACE(((1.,0.707106781186548,1.,0.707106781186548,1.,
0.707106781186548,1.,0.707106781186548,1.),(0.940412143690202,0.66497180391352,
0.940412143690202,0.66497180391352,0.940412143690202,0.66497180391352,0.940412143690202,
0.66497180391352,0.940412143690202),(1.,0.707106781186548,1.,0.707106781186548,
1.,0.707106781186548,1.,0.707106781186548,1.)))
REPRESENTATION_ITEM('')
SURFACE()
);
#17=FACE_BOUND('',#43,.T.);
#18=FACE_BOUND('',#46,.T.);
#19=FACE_BOUND('',#48,.T.);
#20=PLANE('',#220);
#21=PLANE('',#227);
#22=PLANE('',#230);
#23=LINE('',#325,#26);
#24=LINE('',#391,#27);
#25=LINE('',#393,#28);
#26=VECTOR('',#259,2.125);
#27=VECTOR('',#306,1.075);
#28=VECTOR('',#309,3.);
#29=CONICAL_SURFACE('',#216,2.125,0.358770670270572);
#30=CONICAL_SURFACE('',#239,1.075,0.031239833430268);
#31=FACE_OUTER_BOUND('',#40,.T.);
#32=FACE_OUTER_BOUND('',#41,.T.);
#33=FACE_OUTER_BOUND('',#42,.T.);
#34=FACE_OUTER_BOUND('',#44,.T.);
#35=FACE_OUTER_BOUND('',#45,.T.);
#36=FACE_OUTER_BOUND('',#47,.T.);
#37=FACE_OUTER_BOUND('',#49,.T.);
#38=FACE_OUTER_BOUND('',#50,.T.);
#39=FACE_OUTER_BOUND('',#51,.T.);
#40=EDGE_LOOP('',(#124,#125,#126,#127,#128,#129,#130));
#41=EDGE_LOOP('',(#131,#132,#133,#134,#135,#136,#137,#138));
#42=EDGE_LOOP('',(#139,#140));
#43=EDGE_LOOP('',(#141,#142));
#44=EDGE_LOOP('',(#143,#144,#145,#146,#147,#148,#149));
#45=EDGE_LOOP('',(#150,#151));
#46=EDGE_LOOP('',(#152,#153));
#47=EDGE_LOOP('',(#154,#155));
#48=EDGE_LOOP('',(#156,#157));
#49=EDGE_LOOP('',(#158,#159,#160,#161,#162,#163,#164));
#50=EDGE_LOOP('',(#165,#166,#167,#168,#169,#170,#171));
#51=EDGE_LOOP('',(#172,#173,#174,#175,#176,#177));
#52=CIRCLE('',#210,2.40266851623826);
#53=CIRCLE('',#211,0.4);
#54=CIRCLE('',#212,2.77720018726588);
#55=CIRCLE('',#213,2.77720018726588);
#56=CIRCLE('',#214,2.40266851623826);
#57=CIRCLE('',#215,2.40266851623826);
#58=CIRCLE('',#217,1.82299861282131);
#59=CIRCLE('',#218,1.82299861282131);
#60=CIRCLE('',#219,1.82299861282131);
#61=CIRCLE('',#221,3.);
#62=CIRCLE('',#222,3.);
#63=CIRCLE('',#224,0.3);
#64=CIRCLE('',#225,1.54209985955059);
#65=CIRCLE('',#226,1.54209985955059);
#66=CIRCLE('',#228,1.);
#67=CIRCLE('',#229,1.);
#68=CIRCLE('',#231,3.);
#69=CIRCLE('',#232,3.);
#70=CIRCLE('',#233,2.8);
#71=CIRCLE('',#234,2.8);
#72=CIRCLE('',#235,3.);
#73=CIRCLE('',#236,1.15);
#74=CIRCLE('',#237,1.15);
#75=CIRCLE('',#238,1.15);
#76=VERTEX_POINT('',#312);
#77=VERTEX_POINT('',#313);
#78=VERTEX_POINT('',#315);
#79=VERTEX_POINT('',#317);
#80=VERTEX_POINT('',#320);
#81=VERTEX_POINT('',#324);
#82=VERTEX_POINT('',#326);
#83=VERTEX_POINT('',#328);
#84=VERTEX_POINT('',#332);
#85=VERTEX_POINT('',#333);
#86=VERTEX_POINT('',#337);
#87=VERTEX_POINT('',#339);
#88=VERTEX_POINT('',#343);
#89=VERTEX_POINT('',#344);
#90=VERTEX_POINT('',#348);
#91=VERTEX_POINT('',#349);
#92=VERTEX_POINT('',#352);
#93=VERTEX_POINT('',#353);
#94=VERTEX_POINT('',#383);
#95=VERTEX_POINT('',#385);
#96=VERTEX_POINT('',#387);
#97=EDGE_CURVE('',#76,#77,#52,.T.);
#98=EDGE_CURVE('',#77,#78,#53,.T.);
#99=EDGE_CURVE('',#78,#79,#54,.T.);
#100=EDGE_CURVE('',#79,#78,#55,.T.);
#101=EDGE_CURVE('',#77,#80,#56,.T.);
#102=EDGE_CURVE('',#80,#76,#57,.T.);
#103=EDGE_CURVE('',#80,#81,#23,.T.);
#104=EDGE_CURVE('',#82,#81,#58,.T.);
#105=EDGE_CURVE('',#83,#82,#59,.T.);
#106=EDGE_CURVE('',#81,#83,#60,.T.);
#107=EDGE_CURVE('',#84,#85,#61,.T.);
#108=EDGE_CURVE('',#85,#84,#62,.T.);
#109=EDGE_CURVE('',#83,#86,#63,.T.);
#110=EDGE_CURVE('',#86,#87,#64,.T.);
#111=EDGE_CURVE('',#87,#86,#65,.T.);
#112=EDGE_CURVE('',#88,#89,#66,.T.);
#113=EDGE_CURVE('',#89,#88,#67,.T.);
#114=EDGE_CURVE('',#90,#91,#68,.T.);
#115=EDGE_CURVE('',#91,#90,#69,.T.);
#116=EDGE_CURVE('',#92,#93,#70,.T.);
#117=EDGE_CURVE('',#93,#92,#71,.T.);
#118=EDGE_CURVE('',#93,#94,#72,.T.);
#119=EDGE_CURVE('',#95,#94,#73,.T.);
#120=EDGE_CURVE('',#96,#95,#74,.T.);
#121=EDGE_CURVE('',#94,#96,#75,.T.);
#122=EDGE_CURVE('',#96,#89,#24,.T.);
#123=EDGE_CURVE('',#91,#85,#25,.T.);
#124=ORIENTED_EDGE('',*,*,#97,.T.);
#125=ORIENTED_EDGE('',*,*,#98,.T.);
#126=ORIENTED_EDGE('',*,*,#99,.T.);
#127=ORIENTED_EDGE('',*,*,#100,.T.);
#128=ORIENTED_EDGE('',*,*,#98,.F.);
#129=ORIENTED_EDGE('',*,*,#101,.T.);
#130=ORIENTED_EDGE('',*,*,#102,.T.);
#131=ORIENTED_EDGE('',*,*,#97,.F.);
#132=ORIENTED_EDGE('',*,*,#102,.F.);
#133=ORIENTED_EDGE('',*,*,#103,.T.);
#134=ORIENTED_EDGE('',*,*,#104,.F.);
#135=ORIENTED_EDGE('',*,*,#105,.F.);
#136=ORIENTED_EDGE('',*,*,#106,.F.);
#137=ORIENTED_EDGE('',*,*,#103,.F.);
#138=ORIENTED_EDGE('',*,*,#101,.F.);
#139=ORIENTED_EDGE('',*,*,#107,.F.);
#140=ORIENTED_EDGE('',*,*,#108,.F.);
#141=ORIENTED_EDGE('',*,*,#100,.F.);
#142=ORIENTED_EDGE('',*,*,#99,.F.);
#143=ORIENTED_EDGE('',*,*,#104,.T.);
#144=ORIENTED_EDGE('',*,*,#106,.T.);
#145=ORIENTED_EDGE('',*,*,#109,.T.);
#146=ORIENTED_EDGE('',*,*,#110,.T.);
#147=ORIENTED_EDGE('',*,*,#111,.T.);
#148=ORIENTED_EDGE('',*,*,#109,.F.);
#149=ORIENTED_EDGE('',*,*,#105,.T.);
#150=ORIENTED_EDGE('',*,*,#111,.F.);
#151=ORIENTED_EDGE('',*,*,#110,.F.);
#152=ORIENTED_EDGE('',*,*,#112,.T.);
#153=ORIENTED_EDGE('',*,*,#113,.T.);
#154=ORIENTED_EDGE('',*,*,#114,.T.);
#155=ORIENTED_EDGE('',*,*,#115,.T.);
#156=ORIENTED_EDGE('',*,*,#116,.F.);
#157=ORIENTED_EDGE('',*,*,#117,.F.);
#158=ORIENTED_EDGE('',*,*,#116,.T.);
#159=ORIENTED_EDGE('',*,*,#118,.T.);
#160=ORIENTED_EDGE('',*,*,#119,.F.);
#161=ORIENTED_EDGE('',*,*,#120,.F.);
#162=ORIENTED_EDGE('',*,*,#121,.F.);
#163=ORIENTED_EDGE('',*,*,#118,.F.);
#164=ORIENTED_EDGE('',*,*,#117,.T.);
#165=ORIENTED_EDGE('',*,*,#119,.T.);
#166=ORIENTED_EDGE('',*,*,#121,.T.);
#167=ORIENTED_EDGE('',*,*,#122,.T.);
#168=ORIENTED_EDGE('',*,*,#112,.F.);
#169=ORIENTED_EDGE('',*,*,#113,.F.);
#170=ORIENTED_EDGE('',*,*,#122,.F.);
#171=ORIENTED_EDGE('',*,*,#120,.T.);
#172=ORIENTED_EDGE('',*,*,#114,.F.);
#173=ORIENTED_EDGE('',*,*,#115,.F.);
#174=ORIENTED_EDGE('',*,*,#123,.T.);
#175=ORIENTED_EDGE('',*,*,#108,.T.);
#176=ORIENTED_EDGE('',*,*,#107,.T.);
#177=ORIENTED_EDGE('',*,*,#123,.F.);
#178=TOROIDAL_SURFACE('',#209,2.77720018726588,0.4);
#179=TOROIDAL_SURFACE('',#223,1.54209985955059,0.3);
#180=ADVANCED_FACE('',(#31),#178,.F.);
#181=ADVANCED_FACE('',(#32),#29,.T.);
#182=ADVANCED_FACE('',(#33,#17),#20,.T.);
#183=ADVANCED_FACE('',(#34),#179,.T.);
#184=ADVANCED_FACE('',(#35,#18),#21,.T.);
#185=ADVANCED_FACE('',(#36,#19),#22,.T.);
#186=ADVANCED_FACE('',(#37),#16,.T.);
#187=ADVANCED_FACE('',(#38),#30,.F.);
#188=ADVANCED_FACE('',(#39),#15,.T.);
#189=CLOSED_SHELL('',(#180,#181,#182,#183,#184,#185,#186,#187,#188));
#190=DERIVED_UNIT_ELEMENT(#192,1.);
#191=DERIVED_UNIT_ELEMENT(#399,3.);
#192=(
MASS_UNIT()
NAMED_UNIT(*)
SI_UNIT($,.GRAM.)
);
#193=DERIVED_UNIT((#190,#191));
#194=MEASURE_REPRESENTATION_ITEM('density measure',
POSITIVE_RATIO_MEASURE(1.),#193);
#195=PROPERTY_DEFINITION_REPRESENTATION(#200,#197);
#196=PROPERTY_DEFINITION_REPRESENTATION(#201,#198);
#197=REPRESENTATION('material name',(#199),#396);
#198=REPRESENTATION('density',(#194),#396);
#199=DESCRIPTIVE_REPRESENTATION_ITEM('Steatite','Steatite');
#200=PROPERTY_DEFINITION('material property','material name',#406);
#201=PROPERTY_DEFINITION('material property','density of part',#406);
#202=DATE_TIME_ROLE('creation_date');
#203=APPLIED_DATE_AND_TIME_ASSIGNMENT(#204,#202,(#406));
#204=DATE_AND_TIME(#205,#206);
#205=CALENDAR_DATE(2018,24,9);
#206=LOCAL_TIME(13,42,20.,#207);
#207=COORDINATED_UNIVERSAL_TIME_OFFSET(0,0,.BEHIND.);
#208=AXIS2_PLACEMENT_3D('placement',#310,#241,#242);
#209=AXIS2_PLACEMENT_3D('',#311,#243,#244);
#210=AXIS2_PLACEMENT_3D('',#314,#245,#246);
#211=AXIS2_PLACEMENT_3D('',#316,#247,#248);
#212=AXIS2_PLACEMENT_3D('',#318,#249,#250);
#213=AXIS2_PLACEMENT_3D('',#319,#251,#252);
#214=AXIS2_PLACEMENT_3D('',#321,#253,#254);
#215=AXIS2_PLACEMENT_3D('',#322,#255,#256);
#216=AXIS2_PLACEMENT_3D('',#323,#257,#258);
#217=AXIS2_PLACEMENT_3D('',#327,#260,#261);
#218=AXIS2_PLACEMENT_3D('',#329,#262,#263);
#219=AXIS2_PLACEMENT_3D('',#330,#264,#265);
#220=AXIS2_PLACEMENT_3D('',#331,#266,#267);
#221=AXIS2_PLACEMENT_3D('',#334,#268,#269);
#222=AXIS2_PLACEMENT_3D('',#335,#270,#271);
#223=AXIS2_PLACEMENT_3D('',#336,#272,#273);
#224=AXIS2_PLACEMENT_3D('',#338,#274,#275);
#225=AXIS2_PLACEMENT_3D('',#340,#276,#277);
#226=AXIS2_PLACEMENT_3D('',#341,#278,#279);
#227=AXIS2_PLACEMENT_3D('',#342,#280,#281);
#228=AXIS2_PLACEMENT_3D('',#345,#282,#283);
#229=AXIS2_PLACEMENT_3D('',#346,#284,#285);
#230=AXIS2_PLACEMENT_3D('',#347,#286,#287);
#231=AXIS2_PLACEMENT_3D('',#350,#288,#289);
#232=AXIS2_PLACEMENT_3D('',#351,#290,#291);
#233=AXIS2_PLACEMENT_3D('',#354,#292,#293);
#234=AXIS2_PLACEMENT_3D('',#355,#294,#295);
#235=AXIS2_PLACEMENT_3D('',#384,#296,#297);
#236=AXIS2_PLACEMENT_3D('',#386,#298,#299);
#237=AXIS2_PLACEMENT_3D('',#388,#300,#301);
#238=AXIS2_PLACEMENT_3D('',#389,#302,#303);
#239=AXIS2_PLACEMENT_3D('',#390,#304,#305);
#240=AXIS2_PLACEMENT_3D('',#392,#307,#308);
#241=DIRECTION('axis',(0.,0.,1.));
#242=DIRECTION('refdir',(1.,0.,0.));
#243=DIRECTION('center_axis',(1.,0.,0.));
#244=DIRECTION('ref_axis',(0.,0.,-1.));
#245=DIRECTION('center_axis',(1.,0.,0.));
#246=DIRECTION('ref_axis',(0.,-1.,3.06161699786838E-17));
#247=DIRECTION('center_axis',(0.,-1.,-1.22464679914735E-16));
#248=DIRECTION('ref_axis',(0.,-1.22464679914735E-16,1.));
#249=DIRECTION('center_axis',(-1.,0.,0.));
#250=DIRECTION('ref_axis',(0.,-1.,1.83697019872103E-16));
#251=DIRECTION('center_axis',(-1.,0.,0.));
#252=DIRECTION('ref_axis',(0.,-1.,1.83697019872103E-16));
#253=DIRECTION('center_axis',(1.,0.,0.));
#254=DIRECTION('ref_axis',(0.,-1.,3.06161699786838E-17));
#255=DIRECTION('center_axis',(1.,0.,0.));
#256=DIRECTION('ref_axis',(0.,-1.,3.06161699786838E-17));
#257=DIRECTION('center_axis',(1.,0.,0.));
#258=DIRECTION('ref_axis',(0.,1.,0.));
#259=DIRECTION('',(-0.936329177569044,0.351123441588392,4.30002198846826E-17));
#260=DIRECTION('center_axis',(-1.,0.,0.));
#261=DIRECTION('ref_axis',(0.,-1.,3.06161699786838E-17));
#262=DIRECTION('center_axis',(-1.,0.,0.));
#263=DIRECTION('ref_axis',(0.,-1.,3.06161699786838E-17));
#264=DIRECTION('center_axis',(-1.,0.,0.));
#265=DIRECTION('ref_axis',(0.,-1.,3.06161699786838E-17));
#266=DIRECTION('center_axis',(-1.,0.,0.));
#267=DIRECTION('ref_axis',(0.,0.,1.));
#268=DIRECTION('center_axis',(1.,0.,0.));
#269=DIRECTION('ref_axis',(0.,0.,-1.));
#270=DIRECTION('center_axis',(1.,0.,0.));
#271=DIRECTION('ref_axis',(0.,0.,-1.));
#272=DIRECTION('center_axis',(1.,0.,0.));
#273=DIRECTION('ref_axis',(0.,0.,-1.));
#274=DIRECTION('center_axis',(0.,-1.,-1.22464679914735E-16));
#275=DIRECTION('ref_axis',(0.,-1.22464679914735E-16,1.));
#276=DIRECTION('center_axis',(1.,0.,0.));
#277=DIRECTION('ref_axis',(0.,-1.,1.83697019872103E-16));
#278=DIRECTION('center_axis',(1.,0.,0.));
#279=DIRECTION('ref_axis',(0.,-1.,1.83697019872103E-16));
#280=DIRECTION('center_axis',(-1.,0.,0.));
#281=DIRECTION('ref_axis',(0.,0.,1.));
#282=DIRECTION('center_axis',(1.,0.,0.));
#283=DIRECTION('ref_axis',(0.,0.,-1.));
#284=DIRECTION('center_axis',(1.,0.,0.));
#285=DIRECTION('ref_axis',(0.,0.,-1.));
#286=DIRECTION('center_axis',(1.,0.,0.));
#287=DIRECTION('ref_axis',(0.,0.,-1.));
#288=DIRECTION('center_axis',(1.,0.,0.));
#289=DIRECTION('ref_axis',(0.,0.,-1.));
#290=DIRECTION('center_axis',(1.,0.,0.));
#291=DIRECTION('ref_axis',(0.,0.,-1.));
#292=DIRECTION('center_axis',(1.,0.,0.));
#293=DIRECTION('ref_axis',(0.,0.,-1.));
#294=DIRECTION('center_axis',(1.,0.,0.));
#295=DIRECTION('ref_axis',(0.,0.,-1.));
#296=DIRECTION('center_axis',(0.,-1.,-1.22464679914735E-16));
#297=DIRECTION('ref_axis',(0.,-1.22464679914735E-16,1.));
#298=DIRECTION('center_axis',(1.,0.,0.));
#299=DIRECTION('ref_axis',(0.,0.,-1.));
#300=DIRECTION('center_axis',(1.,0.,0.));
#301=DIRECTION('ref_axis',(0.,0.,-1.));
#302=DIRECTION('center_axis',(1.,0.,0.));
#303=DIRECTION('ref_axis',(0.,0.,-1.));
#304=DIRECTION('center_axis',(1.,0.,0.));
#305=DIRECTION('ref_axis',(0.,1.,0.));
#306=DIRECTION('',(-0.999512076087079,0.031234752377721,3.82515395215362E-18));
#307=DIRECTION('center_axis',(1.,0.,0.));
#308=DIRECTION('ref_axis',(0.,1.,0.));
#309=DIRECTION('',(-1.,0.,0.));
#310=CARTESIAN_POINT('',(0.,0.,0.));
#311=CARTESIAN_POINT('Origin',(-4.4,0.,0.));
#312=CARTESIAN_POINT('',(-4.25955062336464,2.40266851623826,-1.47121015391165E-16));
#313=CARTESIAN_POINT('',(-4.25955062336464,-2.9424203078233E-16,2.40266851623826));
#314=CARTESIAN_POINT('Origin',(-4.25955062336464,0.,-3.67802538477913E-16));
#315=CARTESIAN_POINT('',(-4.,-3.40108931992659E-16,2.77720018726588));
#316=CARTESIAN_POINT('Origin',(-4.4,-3.40108931992659E-16,2.77720018726588));
#317=CARTESIAN_POINT('',(-4.,2.77720018726588,-8.50272329981646E-16));
#318=CARTESIAN_POINT('Origin',(-4.,0.,0.));
#319=CARTESIAN_POINT('Origin',(-4.,0.,0.));
#320=CARTESIAN_POINT('',(-4.25955062336464,-2.40266851623826,-2.9424203078233E-16));
#321=CARTESIAN_POINT('Origin',(-4.25955062336464,0.,-3.67802538477913E-16));
#322=CARTESIAN_POINT('Origin',(-4.25955062336464,0.,-3.67802538477913E-16));
#323=CARTESIAN_POINT('Origin',(-5.,0.,0.));
#324=CARTESIAN_POINT('',(-5.80533703247652,-1.82299861282131,-2.23252941604168E-16));
#325=CARTESIAN_POINT('',(-5.,-2.125,-2.60237444818813E-16));
#326=CARTESIAN_POINT('',(-5.80533703247652,1.82299861282131,-5.58132354010419E-16));
#327=CARTESIAN_POINT('Origin',(-5.80533703247652,0.,-2.7906617700521E-16));
#328=CARTESIAN_POINT('',(-5.80533703247652,-2.23252941604168E-16,1.82299861282131));
#329=CARTESIAN_POINT('Origin',(-5.80533703247652,0.,-2.7906617700521E-16));
#330=CARTESIAN_POINT('Origin',(-5.80533703247652,0.,-2.7906617700521E-16));
#331=CARTESIAN_POINT('Origin',(-4.,3.,0.));
#332=CARTESIAN_POINT('',(-4.,3.,0.));
#333=CARTESIAN_POINT('',(-4.,-3.,-3.67394039744206E-16));
#334=CARTESIAN_POINT('Origin',(-4.,0.,0.));
#335=CARTESIAN_POINT('Origin',(-4.,0.,0.));
#336=CARTESIAN_POINT('Origin',(-5.7,0.,0.));
#337=CARTESIAN_POINT('',(-6.,-1.88852765696422E-16,1.54209985955059));
#338=CARTESIAN_POINT('Origin',(-5.7,-1.88852765696422E-16,1.54209985955059));
#339=CARTESIAN_POINT('',(-6.,1.54209985955059,-9.44263828482108E-17));
#340=CARTESIAN_POINT('Origin',(-6.,0.,0.));
#341=CARTESIAN_POINT('Origin',(-6.,0.,0.));
#342=CARTESIAN_POINT('Origin',(-6.,1.75,0.));
#343=CARTESIAN_POINT('',(-6.,1.,0.));
#344=CARTESIAN_POINT('',(-6.,-1.,-1.22464679914735E-16));
#345=CARTESIAN_POINT('Origin',(-6.,0.,0.));
#346=CARTESIAN_POINT('Origin',(-6.,0.,0.));
#347=CARTESIAN_POINT('Origin',(0.,2.8,0.));
#348=CARTESIAN_POINT('',(0.,3.,0.));
#349=CARTESIAN_POINT('',(0.,-3.,-3.67394039744206E-16));
#350=CARTESIAN_POINT('Origin',(0.,0.,0.));
#351=CARTESIAN_POINT('Origin',(0.,0.,0.));
#352=CARTESIAN_POINT('',(0.,2.8,0.));
#353=CARTESIAN_POINT('',(0.,-3.42901103761259E-16,2.8));
#354=CARTESIAN_POINT('Origin',(0.,0.,0.));
#355=CARTESIAN_POINT('Origin',(0.,0.,0.));
#356=CARTESIAN_POINT('Ctrl Pts',(-1.2,0.,1.15));
#357=CARTESIAN_POINT('Ctrl Pts',(-1.2,-1.15,1.15));
#358=CARTESIAN_POINT('Ctrl Pts',(-1.2,-1.15,0.));
#359=CARTESIAN_POINT('Ctrl Pts',(-1.2,-1.15,-1.15));
#360=CARTESIAN_POINT('Ctrl Pts',(-1.2,0.,-1.15));
#361=CARTESIAN_POINT('Ctrl Pts',(-1.2,1.15,-1.15));
#362=CARTESIAN_POINT('Ctrl Pts',(-1.2,1.15,0.));
#363=CARTESIAN_POINT('Ctrl Pts',(-1.2,1.15,1.15));
#364=CARTESIAN_POINT('Ctrl Pts',(-1.2,0.,1.15));
#365=CARTESIAN_POINT('Ctrl Pts',(-0.898305728105403,0.,2.19194962044029));
#366=CARTESIAN_POINT('Ctrl Pts',(-0.898305728105403,-2.19194962044029,2.19194962044029));
#367=CARTESIAN_POINT('Ctrl Pts',(-0.898305728105403,-2.19194962044029,0.));
#368=CARTESIAN_POINT('Ctrl Pts',(-0.898305728105403,-2.19194962044029,-2.19194962044029));
#369=CARTESIAN_POINT('Ctrl Pts',(-0.898305728105403,0.,-2.19194962044029));
#370=CARTESIAN_POINT('Ctrl Pts',(-0.898305728105403,2.19194962044029,-2.19194962044029));
#371=CARTESIAN_POINT('Ctrl Pts',(-0.898305728105403,2.19194962044029,0.));
#372=CARTESIAN_POINT('Ctrl Pts',(-0.898305728105403,2.19194962044029,2.19194962044029));
#373=CARTESIAN_POINT('Ctrl Pts',(-0.898305728105403,0.,2.19194962044029));
#374=CARTESIAN_POINT('Ctrl Pts',(8.32667268468867E-16,0.,2.8));
#375=CARTESIAN_POINT('Ctrl Pts',(8.32667268468867E-16,-2.8,2.8));
#376=CARTESIAN_POINT('Ctrl Pts',(8.32667268468867E-16,-2.8,0.));
#377=CARTESIAN_POINT('Ctrl Pts',(8.32667268468867E-16,-2.8,-2.8));
#378=CARTESIAN_POINT('Ctrl Pts',(8.32667268468867E-16,0.,-2.8));
#379=CARTESIAN_POINT('Ctrl Pts',(8.32667268468867E-16,2.8,-2.8));
#380=CARTESIAN_POINT('Ctrl Pts',(8.32667268468867E-16,2.8,0.));
#381=CARTESIAN_POINT('Ctrl Pts',(8.32667268468867E-16,2.8,2.8));
#382=CARTESIAN_POINT('Ctrl Pts',(8.32667268468867E-16,0.,2.8));
#383=CARTESIAN_POINT('',(-1.2,-1.40834381901945E-16,1.15));
#384=CARTESIAN_POINT('Origin',(1.68163570415754,-3.86533528740131E-17,0.315628578794515));
#385=CARTESIAN_POINT('',(-1.2,1.15,0.));
#386=CARTESIAN_POINT('Origin',(-1.2,0.,0.));
#387=CARTESIAN_POINT('',(-1.2,-1.15,-1.40834381901945E-16));
#388=CARTESIAN_POINT('Origin',(-1.2,0.,0.));
#389=CARTESIAN_POINT('Origin',(-1.2,0.,0.));
#390=CARTESIAN_POINT('Origin',(-3.6,0.,0.));
#391=CARTESIAN_POINT('',(-3.6,-1.075,-1.3164953090834E-16));
#392=CARTESIAN_POINT('Origin',(-2.,0.,0.));
#393=CARTESIAN_POINT('',(-2.,-3.,-3.67394039744206E-16));
#394=UNCERTAINTY_MEASURE_WITH_UNIT(LENGTH_MEASURE(0.01),#398,
'DISTANCE_ACCURACY_VALUE',
'Maximum model space distance between geometric entities at asserted c
onnectivities');
#395=UNCERTAINTY_MEASURE_WITH_UNIT(LENGTH_MEASURE(0.01),#398,
'DISTANCE_ACCURACY_VALUE',
'Maximum model space distance between geometric entities at asserted c
onnectivities');
#396=(
GEOMETRIC_REPRESENTATION_CONTEXT(3)
GLOBAL_UNCERTAINTY_ASSIGNED_CONTEXT((#394))
GLOBAL_UNIT_ASSIGNED_CONTEXT((#398,#400,#401))
REPRESENTATION_CONTEXT('','3D')
);
#397=(
GEOMETRIC_REPRESENTATION_CONTEXT(3)
GLOBAL_UNCERTAINTY_ASSIGNED_CONTEXT((#395))
GLOBAL_UNIT_ASSIGNED_CONTEXT((#398,#400,#401))
REPRESENTATION_CONTEXT('','3D')
);
#398=(
LENGTH_UNIT()
NAMED_UNIT(*)
SI_UNIT(.MILLI.,.METRE.)
);
#399=(
LENGTH_UNIT()
NAMED_UNIT(*)
SI_UNIT(.CENTI.,.METRE.)
);
#400=(
NAMED_UNIT(*)
PLANE_ANGLE_UNIT()
SI_UNIT($,.RADIAN.)
);
#401=(
NAMED_UNIT(*)
SI_UNIT($,.STERADIAN.)
SOLID_ANGLE_UNIT()
);
#402=SHAPE_DEFINITION_REPRESENTATION(#403,#404);
#403=PRODUCT_DEFINITION_SHAPE('',$,#406);
#404=SHAPE_REPRESENTATION('',(#208),#396);
#405=PRODUCT_DEFINITION_CONTEXT('part definition',#410,'design');
#406=PRODUCT_DEFINITION('CBI-ST-2-6','CBI-ST-2-6',#407,#405);
#407=PRODUCT_DEFINITION_FORMATION('',$,#412);
#408=PRODUCT_RELATED_PRODUCT_CATEGORY('CBI-ST-2-6','CBI-ST-2-6',(#412));
#409=APPLICATION_PROTOCOL_DEFINITION('international standard',
'automotive_design',2009,#410);
#410=APPLICATION_CONTEXT(
'Core Data for Automotive Mechanical Design Process');
#411=PRODUCT_CONTEXT('part definition',#410,'mechanical');
#412=PRODUCT('CBI-ST-2-6','CBI-ST-2-6',$,(#411));
#413=PRESENTATION_STYLE_ASSIGNMENT((#414));
#414=SURFACE_STYLE_USAGE(.BOTH.,#417);
#415=SURFACE_STYLE_RENDERING_WITH_PROPERTIES($,#421,(#416));
#416=SURFACE_STYLE_TRANSPARENT(1.);
#417=SURFACE_SIDE_STYLE('',(#418,#415));
#418=SURFACE_STYLE_FILL_AREA(#419);
#419=FILL_AREA_STYLE('',(#420));
#420=FILL_AREA_STYLE_COLOUR('',#421);
#421=COLOUR_RGB('',0.937254901960784,0.937254901960784,0.913725490196078);
ENDSEC;
END-ISO-10303-21;
