ISO-10303-21;
HEADER;
/* Generated by software containing ST-Developer
 * from STEP Tools, Inc. (www.steptools.com) 
 */

FILE_DESCRIPTION(
/* description */ (''),
/* implementation_level */ '2;1');

FILE_NAME(
/* name */ 'G:\\ACCESSORIES\\Ceramic Parts\\Step Files\\A-CT45_10-4-50.
stp',
/* time_stamp */ '2018-10-09T08:41:01+01:00',
/* author */ ('paul'),
/* organization */ (''),
/* preprocessor_version */ 'ST-DEVELOPER v17.2',
/* originating_system */ 'Autodesk Inventor 2019',
/* authorisation */ '');

FILE_SCHEMA (('AUTOMOTIVE_DESIGN { 1 0 10303 214 3 1 1 }'));
ENDSEC;

DATA;
#10=MECHANICAL_DESIGN_GEOMETRIC_PRESENTATION_REPRESENTATION('',(#13),#248);
#11=SHAPE_REPRESENTATION_RELATIONSHIP('SRR','None',#255,#12);
#12=ADVANCED_BREP_SHAPE_REPRESENTATION('',(#14),#247);
#13=STYLED_ITEM('',(#264),#14);
#14=MANIFOLD_SOLID_BREP('Solid2',#134);
#15=FACE_BOUND('',#38,.T.);
#16=FACE_BOUND('',#39,.T.);
#17=FACE_BOUND('',#40,.T.);
#18=FACE_BOUND('',#41,.T.);
#19=FACE_BOUND('',#43,.T.);
#20=FACE_BOUND('',#44,.T.);
#21=FACE_BOUND('',#45,.T.);
#22=FACE_BOUND('',#46,.T.);
#23=PLANE('',#169);
#24=PLANE('',#170);
#25=FACE_OUTER_BOUND('',#32,.T.);
#26=FACE_OUTER_BOUND('',#33,.T.);
#27=FACE_OUTER_BOUND('',#34,.T.);
#28=FACE_OUTER_BOUND('',#35,.T.);
#29=FACE_OUTER_BOUND('',#36,.T.);
#30=FACE_OUTER_BOUND('',#37,.T.);
#31=FACE_OUTER_BOUND('',#42,.T.);
#32=EDGE_LOOP('',(#92,#93,#94,#95));
#33=EDGE_LOOP('',(#96,#97,#98,#99));
#34=EDGE_LOOP('',(#100,#101,#102,#103));
#35=EDGE_LOOP('',(#104,#105,#106,#107));
#36=EDGE_LOOP('',(#108,#109,#110,#111));
#37=EDGE_LOOP('',(#112));
#38=EDGE_LOOP('',(#113));
#39=EDGE_LOOP('',(#114));
#40=EDGE_LOOP('',(#115));
#41=EDGE_LOOP('',(#116));
#42=EDGE_LOOP('',(#117));
#43=EDGE_LOOP('',(#118));
#44=EDGE_LOOP('',(#119));
#45=EDGE_LOOP('',(#120));
#46=EDGE_LOOP('',(#121));
#47=LINE('',#217,#52);
#48=LINE('',#223,#53);
#49=LINE('',#229,#54);
#50=LINE('',#235,#55);
#51=LINE('',#241,#56);
#52=VECTOR('',#177,0.5);
#53=VECTOR('',#184,0.5);
#54=VECTOR('',#191,0.5);
#55=VECTOR('',#198,0.5);
#56=VECTOR('',#205,2.25);
#57=CIRCLE('',#155,0.5);
#58=CIRCLE('',#156,0.5);
#59=CIRCLE('',#158,0.5);
#60=CIRCLE('',#159,0.5);
#61=CIRCLE('',#161,0.5);
#62=CIRCLE('',#162,0.5);
#63=CIRCLE('',#164,0.5);
#64=CIRCLE('',#165,0.5);
#65=CIRCLE('',#167,2.25);
#66=CIRCLE('',#168,2.25);
#67=VERTEX_POINT('',#214);
#68=VERTEX_POINT('',#216);
#69=VERTEX_POINT('',#220);
#70=VERTEX_POINT('',#222);
#71=VERTEX_POINT('',#226);
#72=VERTEX_POINT('',#228);
#73=VERTEX_POINT('',#232);
#74=VERTEX_POINT('',#234);
#75=VERTEX_POINT('',#238);
#76=VERTEX_POINT('',#240);
#77=EDGE_CURVE('',#67,#67,#57,.T.);
#78=EDGE_CURVE('',#67,#68,#47,.T.);
#79=EDGE_CURVE('',#68,#68,#58,.T.);
#80=EDGE_CURVE('',#69,#69,#59,.T.);
#81=EDGE_CURVE('',#69,#70,#48,.T.);
#82=EDGE_CURVE('',#70,#70,#60,.T.);
#83=EDGE_CURVE('',#71,#71,#61,.T.);
#84=EDGE_CURVE('',#71,#72,#49,.T.);
#85=EDGE_CURVE('',#72,#72,#62,.T.);
#86=EDGE_CURVE('',#73,#73,#63,.T.);
#87=EDGE_CURVE('',#73,#74,#50,.T.);
#88=EDGE_CURVE('',#74,#74,#64,.T.);
#89=EDGE_CURVE('',#75,#75,#65,.T.);
#90=EDGE_CURVE('',#75,#76,#51,.T.);
#91=EDGE_CURVE('',#76,#76,#66,.T.);
#92=ORIENTED_EDGE('',*,*,#77,.F.);
#93=ORIENTED_EDGE('',*,*,#78,.T.);
#94=ORIENTED_EDGE('',*,*,#79,.F.);
#95=ORIENTED_EDGE('',*,*,#78,.F.);
#96=ORIENTED_EDGE('',*,*,#80,.F.);
#97=ORIENTED_EDGE('',*,*,#81,.T.);
#98=ORIENTED_EDGE('',*,*,#82,.F.);
#99=ORIENTED_EDGE('',*,*,#81,.F.);
#100=ORIENTED_EDGE('',*,*,#83,.F.);
#101=ORIENTED_EDGE('',*,*,#84,.T.);
#102=ORIENTED_EDGE('',*,*,#85,.F.);
#103=ORIENTED_EDGE('',*,*,#84,.F.);
#104=ORIENTED_EDGE('',*,*,#86,.F.);
#105=ORIENTED_EDGE('',*,*,#87,.T.);
#106=ORIENTED_EDGE('',*,*,#88,.F.);
#107=ORIENTED_EDGE('',*,*,#87,.F.);
#108=ORIENTED_EDGE('',*,*,#89,.F.);
#109=ORIENTED_EDGE('',*,*,#90,.T.);
#110=ORIENTED_EDGE('',*,*,#91,.F.);
#111=ORIENTED_EDGE('',*,*,#90,.F.);
#112=ORIENTED_EDGE('',*,*,#91,.T.);
#113=ORIENTED_EDGE('',*,*,#77,.T.);
#114=ORIENTED_EDGE('',*,*,#80,.T.);
#115=ORIENTED_EDGE('',*,*,#83,.T.);
#116=ORIENTED_EDGE('',*,*,#86,.T.);
#117=ORIENTED_EDGE('',*,*,#89,.T.);
#118=ORIENTED_EDGE('',*,*,#79,.T.);
#119=ORIENTED_EDGE('',*,*,#82,.T.);
#120=ORIENTED_EDGE('',*,*,#85,.T.);
#121=ORIENTED_EDGE('',*,*,#88,.T.);
#122=CYLINDRICAL_SURFACE('',#154,0.5);
#123=CYLINDRICAL_SURFACE('',#157,0.5);
#124=CYLINDRICAL_SURFACE('',#160,0.5);
#125=CYLINDRICAL_SURFACE('',#163,0.5);
#126=CYLINDRICAL_SURFACE('',#166,2.25);
#127=ADVANCED_FACE('',(#25),#122,.F.);
#128=ADVANCED_FACE('',(#26),#123,.F.);
#129=ADVANCED_FACE('',(#27),#124,.F.);
#130=ADVANCED_FACE('',(#28),#125,.F.);
#131=ADVANCED_FACE('',(#29),#126,.T.);
#132=ADVANCED_FACE('',(#30,#15,#16,#17,#18),#23,.F.);
#133=ADVANCED_FACE('',(#31,#19,#20,#21,#22),#24,.T.);
#134=CLOSED_SHELL('',(#127,#128,#129,#130,#131,#132,#133));
#135=DERIVED_UNIT_ELEMENT(#137,1.);
#136=DERIVED_UNIT_ELEMENT(#250,3.);
#137=(
MASS_UNIT()
NAMED_UNIT(*)
SI_UNIT($,.GRAM.)
);
#138=DERIVED_UNIT((#135,#136));
#139=MEASURE_REPRESENTATION_ITEM('density measure',
POSITIVE_RATIO_MEASURE(1.),#138);
#140=PROPERTY_DEFINITION_REPRESENTATION(#145,#142);
#141=PROPERTY_DEFINITION_REPRESENTATION(#146,#143);
#142=REPRESENTATION('material name',(#144),#247);
#143=REPRESENTATION('density',(#139),#247);
#144=DESCRIPTIVE_REPRESENTATION_ITEM('Alumina Ceramic',
'Alumina Ceramic');
#145=PROPERTY_DEFINITION('material property','material name',#257);
#146=PROPERTY_DEFINITION('material property','density of part',#257);
#147=DATE_TIME_ROLE('creation_date');
#148=APPLIED_DATE_AND_TIME_ASSIGNMENT(#149,#147,(#257));
#149=DATE_AND_TIME(#150,#151);
#150=CALENDAR_DATE(2018,25,9);
#151=LOCAL_TIME(10,49,35.,#152);
#152=COORDINATED_UNIVERSAL_TIME_OFFSET(0,0,.BEHIND.);
#153=AXIS2_PLACEMENT_3D('placement',#212,#171,#172);
#154=AXIS2_PLACEMENT_3D('',#213,#173,#174);
#155=AXIS2_PLACEMENT_3D('',#215,#175,#176);
#156=AXIS2_PLACEMENT_3D('',#218,#178,#179);
#157=AXIS2_PLACEMENT_3D('',#219,#180,#181);
#158=AXIS2_PLACEMENT_3D('',#221,#182,#183);
#159=AXIS2_PLACEMENT_3D('',#224,#185,#186);
#160=AXIS2_PLACEMENT_3D('',#225,#187,#188);
#161=AXIS2_PLACEMENT_3D('',#227,#189,#190);
#162=AXIS2_PLACEMENT_3D('',#230,#192,#193);
#163=AXIS2_PLACEMENT_3D('',#231,#194,#195);
#164=AXIS2_PLACEMENT_3D('',#233,#196,#197);
#165=AXIS2_PLACEMENT_3D('',#236,#199,#200);
#166=AXIS2_PLACEMENT_3D('',#237,#201,#202);
#167=AXIS2_PLACEMENT_3D('',#239,#203,#204);
#168=AXIS2_PLACEMENT_3D('',#242,#206,#207);
#169=AXIS2_PLACEMENT_3D('',#243,#208,#209);
#170=AXIS2_PLACEMENT_3D('',#244,#210,#211);
#171=DIRECTION('axis',(0.,0.,1.));
#172=DIRECTION('refdir',(1.,0.,0.));
#173=DIRECTION('center_axis',(0.,0.,1.));
#174=DIRECTION('ref_axis',(-1.,0.,0.));
#175=DIRECTION('center_axis',(0.,0.,1.));
#176=DIRECTION('ref_axis',(-1.,0.,0.));
#177=DIRECTION('',(0.,0.,1.));
#178=DIRECTION('center_axis',(0.,0.,-1.));
#179=DIRECTION('ref_axis',(-1.,0.,0.));
#180=DIRECTION('center_axis',(0.,0.,1.));
#181=DIRECTION('ref_axis',(-1.,0.,0.));
#182=DIRECTION('center_axis',(0.,0.,1.));
#183=DIRECTION('ref_axis',(-1.,0.,0.));
#184=DIRECTION('',(0.,0.,1.));
#185=DIRECTION('center_axis',(0.,0.,-1.));
#186=DIRECTION('ref_axis',(-1.,0.,0.));
#187=DIRECTION('center_axis',(0.,0.,1.));
#188=DIRECTION('ref_axis',(-1.,0.,0.));
#189=DIRECTION('center_axis',(0.,0.,1.));
#190=DIRECTION('ref_axis',(-1.,0.,0.));
#191=DIRECTION('',(0.,0.,1.));
#192=DIRECTION('center_axis',(0.,0.,-1.));
#193=DIRECTION('ref_axis',(-1.,0.,0.));
#194=DIRECTION('center_axis',(0.,0.,1.));
#195=DIRECTION('ref_axis',(-1.,0.,0.));
#196=DIRECTION('center_axis',(0.,0.,1.));
#197=DIRECTION('ref_axis',(-1.,0.,0.));
#198=DIRECTION('',(0.,0.,1.));
#199=DIRECTION('center_axis',(0.,0.,-1.));
#200=DIRECTION('ref_axis',(-1.,0.,0.));
#201=DIRECTION('center_axis',(0.,0.,1.));
#202=DIRECTION('ref_axis',(-1.,0.,0.));
#203=DIRECTION('center_axis',(0.,0.,1.));
#204=DIRECTION('ref_axis',(-1.,0.,0.));
#205=DIRECTION('',(0.,0.,-1.));
#206=DIRECTION('center_axis',(0.,0.,-1.));
#207=DIRECTION('ref_axis',(-1.,0.,0.));
#208=DIRECTION('center_axis',(0.,0.,1.));
#209=DIRECTION('ref_axis',(1.,0.,0.));
#210=DIRECTION('center_axis',(0.,0.,1.));
#211=DIRECTION('ref_axis',(1.,0.,0.));
#212=CARTESIAN_POINT('',(0.,0.,0.));
#213=CARTESIAN_POINT('Origin',(0.,-1.035,0.));
#214=CARTESIAN_POINT('',(0.5,-1.035,0.));
#215=CARTESIAN_POINT('Origin',(0.,-1.035,0.));
#216=CARTESIAN_POINT('',(0.5,-1.035,50.));
#217=CARTESIAN_POINT('',(0.5,-1.035,0.));
#218=CARTESIAN_POINT('Origin',(0.,-1.035,50.));
#219=CARTESIAN_POINT('Origin',(-1.035,0.,0.));
#220=CARTESIAN_POINT('',(-0.535,6.12323399573677E-17,0.));
#221=CARTESIAN_POINT('Origin',(-1.035,0.,0.));
#222=CARTESIAN_POINT('',(-0.535,6.12323399573677E-17,50.));
#223=CARTESIAN_POINT('',(-0.535,6.12323399573677E-17,0.));
#224=CARTESIAN_POINT('Origin',(-1.035,0.,50.));
#225=CARTESIAN_POINT('Origin',(1.035,0.,0.));
#226=CARTESIAN_POINT('',(1.535,6.12323399573677E-17,0.));
#227=CARTESIAN_POINT('Origin',(1.035,0.,0.));
#228=CARTESIAN_POINT('',(1.535,6.12323399573677E-17,50.));
#229=CARTESIAN_POINT('',(1.535,6.12323399573677E-17,0.));
#230=CARTESIAN_POINT('Origin',(1.035,0.,50.));
#231=CARTESIAN_POINT('Origin',(0.,1.035,0.));
#232=CARTESIAN_POINT('',(0.5,1.035,0.));
#233=CARTESIAN_POINT('Origin',(0.,1.035,0.));
#234=CARTESIAN_POINT('',(0.5,1.035,50.));
#235=CARTESIAN_POINT('',(0.5,1.035,0.));
#236=CARTESIAN_POINT('Origin',(0.,1.035,50.));
#237=CARTESIAN_POINT('Origin',(0.,0.,0.));
#238=CARTESIAN_POINT('',(2.25,2.75545529808154E-16,50.));
#239=CARTESIAN_POINT('Origin',(0.,0.,50.));
#240=CARTESIAN_POINT('',(2.25,2.75545529808154E-16,0.));
#241=CARTESIAN_POINT('',(2.25,2.75545529808154E-16,0.));
#242=CARTESIAN_POINT('Origin',(0.,0.,0.));
#243=CARTESIAN_POINT('Origin',(-1.25760555690046E-16,0.,0.));
#244=CARTESIAN_POINT('Origin',(-1.25760555690046E-16,0.,50.));
#245=UNCERTAINTY_MEASURE_WITH_UNIT(LENGTH_MEASURE(0.01),#249,
'DISTANCE_ACCURACY_VALUE',
'Maximum model space distance between geometric entities at asserted c
onnectivities');
#246=UNCERTAINTY_MEASURE_WITH_UNIT(LENGTH_MEASURE(0.01),#249,
'DISTANCE_ACCURACY_VALUE',
'Maximum model space distance between geometric entities at asserted c
onnectivities');
#247=(
GEOMETRIC_REPRESENTATION_CONTEXT(3)
GLOBAL_UNCERTAINTY_ASSIGNED_CONTEXT((#245))
GLOBAL_UNIT_ASSIGNED_CONTEXT((#249,#251,#252))
REPRESENTATION_CONTEXT('','3D')
);
#248=(
GEOMETRIC_REPRESENTATION_CONTEXT(3)
GLOBAL_UNCERTAINTY_ASSIGNED_CONTEXT((#246))
GLOBAL_UNIT_ASSIGNED_CONTEXT((#249,#251,#252))
REPRESENTATION_CONTEXT('','3D')
);
#249=(
LENGTH_UNIT()
NAMED_UNIT(*)
SI_UNIT(.MILLI.,.METRE.)
);
#250=(
LENGTH_UNIT()
NAMED_UNIT(*)
SI_UNIT(.CENTI.,.METRE.)
);
#251=(
NAMED_UNIT(*)
PLANE_ANGLE_UNIT()
SI_UNIT($,.RADIAN.)
);
#252=(
NAMED_UNIT(*)
SI_UNIT($,.STERADIAN.)
SOLID_ANGLE_UNIT()
);
#253=SHAPE_DEFINITION_REPRESENTATION(#254,#255);
#254=PRODUCT_DEFINITION_SHAPE('',$,#257);
#255=SHAPE_REPRESENTATION('',(#153),#247);
#256=PRODUCT_DEFINITION_CONTEXT('part definition',#261,'design');
#257=PRODUCT_DEFINITION('A-CT45_10-4-50','A-CT45_10-4-50',#258,#256);
#258=PRODUCT_DEFINITION_FORMATION('',$,#263);
#259=PRODUCT_RELATED_PRODUCT_CATEGORY('A-CT45_10-4-50','A-CT45_10-4-50',
(#263));
#260=APPLICATION_PROTOCOL_DEFINITION('international standard',
'automotive_design',2009,#261);
#261=APPLICATION_CONTEXT(
'Core Data for Automotive Mechanical Design Process');
#262=PRODUCT_CONTEXT('part definition',#261,'mechanical');
#263=PRODUCT('A-CT45_10-4-50','A-CT45_10-4-50',$,(#262));
#264=PRESENTATION_STYLE_ASSIGNMENT((#265));
#265=SURFACE_STYLE_USAGE(.BOTH.,#268);
#266=SURFACE_STYLE_RENDERING_WITH_PROPERTIES($,#272,(#267));
#267=SURFACE_STYLE_TRANSPARENT(1.);
#268=SURFACE_SIDE_STYLE('',(#269,#266));
#269=SURFACE_STYLE_FILL_AREA(#270);
#270=FILL_AREA_STYLE('',(#271));
#271=FILL_AREA_STYLE_COLOUR('',#272);
#272=COLOUR_RGB('',0.901960784313726,0.901960784313726,0.815686274509804);
ENDSEC;
END-ISO-10303-21;
