ISO-10303-21;
HEADER;
/* Generated by software containing ST-Developer
 * from STEP Tools, Inc. (www.steptools.com) 
 */

FILE_DESCRIPTION(
/* description */ (''),
/* implementation_level */ '2;1');

FILE_NAME(
/* name */ 'G:\\ACCESSORIES\\Ceramic Parts\\Step Files\\A-CT3_08-2-50.
stp',
/* time_stamp */ '2018-10-09T08:34:21+01:00',
/* author */ ('paul'),
/* organization */ (''),
/* preprocessor_version */ 'ST-DEVELOPER v17.2',
/* originating_system */ 'Autodesk Inventor 2019',
/* authorisation */ '');

FILE_SCHEMA (('AUTOMOTIVE_DESIGN { 1 0 10303 214 3 1 1 }'));
ENDSEC;

DATA;
#10=MECHANICAL_DESIGN_GEOMETRIC_PRESENTATION_REPRESENTATION('',(#13),#170);
#11=SHAPE_REPRESENTATION_RELATIONSHIP('SRR','None',#177,#12);
#12=ADVANCED_BREP_SHAPE_REPRESENTATION('',(#14),#169);
#13=STYLED_ITEM('',(#186),#14);
#14=MANIFOLD_SOLID_BREP('Solid2',#88);
#15=FACE_BOUND('',#30,.T.);
#16=FACE_BOUND('',#31,.T.);
#17=FACE_BOUND('',#33,.T.);
#18=FACE_BOUND('',#34,.T.);
#19=PLANE('',#117);
#20=PLANE('',#118);
#21=FACE_OUTER_BOUND('',#26,.T.);
#22=FACE_OUTER_BOUND('',#27,.T.);
#23=FACE_OUTER_BOUND('',#28,.T.);
#24=FACE_OUTER_BOUND('',#29,.T.);
#25=FACE_OUTER_BOUND('',#32,.T.);
#26=EDGE_LOOP('',(#62,#63,#64,#65));
#27=EDGE_LOOP('',(#66,#67,#68,#69));
#28=EDGE_LOOP('',(#70,#71,#72,#73));
#29=EDGE_LOOP('',(#74));
#30=EDGE_LOOP('',(#75));
#31=EDGE_LOOP('',(#76));
#32=EDGE_LOOP('',(#77));
#33=EDGE_LOOP('',(#78));
#34=EDGE_LOOP('',(#79));
#35=LINE('',#151,#38);
#36=LINE('',#157,#39);
#37=LINE('',#163,#40);
#38=VECTOR('',#125,0.4);
#39=VECTOR('',#132,0.4);
#40=VECTOR('',#139,1.5);
#41=CIRCLE('',#109,0.4);
#42=CIRCLE('',#110,0.4);
#43=CIRCLE('',#112,0.4);
#44=CIRCLE('',#113,0.4);
#45=CIRCLE('',#115,1.5);
#46=CIRCLE('',#116,1.5);
#47=VERTEX_POINT('',#148);
#48=VERTEX_POINT('',#150);
#49=VERTEX_POINT('',#154);
#50=VERTEX_POINT('',#156);
#51=VERTEX_POINT('',#160);
#52=VERTEX_POINT('',#162);
#53=EDGE_CURVE('',#47,#47,#41,.T.);
#54=EDGE_CURVE('',#47,#48,#35,.T.);
#55=EDGE_CURVE('',#48,#48,#42,.T.);
#56=EDGE_CURVE('',#49,#49,#43,.T.);
#57=EDGE_CURVE('',#49,#50,#36,.T.);
#58=EDGE_CURVE('',#50,#50,#44,.T.);
#59=EDGE_CURVE('',#51,#51,#45,.T.);
#60=EDGE_CURVE('',#51,#52,#37,.T.);
#61=EDGE_CURVE('',#52,#52,#46,.T.);
#62=ORIENTED_EDGE('',*,*,#53,.F.);
#63=ORIENTED_EDGE('',*,*,#54,.T.);
#64=ORIENTED_EDGE('',*,*,#55,.F.);
#65=ORIENTED_EDGE('',*,*,#54,.F.);
#66=ORIENTED_EDGE('',*,*,#56,.F.);
#67=ORIENTED_EDGE('',*,*,#57,.T.);
#68=ORIENTED_EDGE('',*,*,#58,.F.);
#69=ORIENTED_EDGE('',*,*,#57,.F.);
#70=ORIENTED_EDGE('',*,*,#59,.F.);
#71=ORIENTED_EDGE('',*,*,#60,.T.);
#72=ORIENTED_EDGE('',*,*,#61,.F.);
#73=ORIENTED_EDGE('',*,*,#60,.F.);
#74=ORIENTED_EDGE('',*,*,#61,.T.);
#75=ORIENTED_EDGE('',*,*,#53,.T.);
#76=ORIENTED_EDGE('',*,*,#56,.T.);
#77=ORIENTED_EDGE('',*,*,#59,.T.);
#78=ORIENTED_EDGE('',*,*,#55,.T.);
#79=ORIENTED_EDGE('',*,*,#58,.T.);
#80=CYLINDRICAL_SURFACE('',#108,0.4);
#81=CYLINDRICAL_SURFACE('',#111,0.4);
#82=CYLINDRICAL_SURFACE('',#114,1.5);
#83=ADVANCED_FACE('',(#21),#80,.F.);
#84=ADVANCED_FACE('',(#22),#81,.F.);
#85=ADVANCED_FACE('',(#23),#82,.T.);
#86=ADVANCED_FACE('',(#24,#15,#16),#19,.F.);
#87=ADVANCED_FACE('',(#25,#17,#18),#20,.T.);
#88=CLOSED_SHELL('',(#83,#84,#85,#86,#87));
#89=DERIVED_UNIT_ELEMENT(#91,1.);
#90=DERIVED_UNIT_ELEMENT(#172,3.);
#91=(
MASS_UNIT()
NAMED_UNIT(*)
SI_UNIT($,.GRAM.)
);
#92=DERIVED_UNIT((#89,#90));
#93=MEASURE_REPRESENTATION_ITEM('density measure',
POSITIVE_RATIO_MEASURE(1.),#92);
#94=PROPERTY_DEFINITION_REPRESENTATION(#99,#96);
#95=PROPERTY_DEFINITION_REPRESENTATION(#100,#97);
#96=REPRESENTATION('material name',(#98),#169);
#97=REPRESENTATION('density',(#93),#169);
#98=DESCRIPTIVE_REPRESENTATION_ITEM('Alumina Ceramic','Alumina Ceramic');
#99=PROPERTY_DEFINITION('material property','material name',#179);
#100=PROPERTY_DEFINITION('material property','density of part',#179);
#101=DATE_TIME_ROLE('creation_date');
#102=APPLIED_DATE_AND_TIME_ASSIGNMENT(#103,#101,(#179));
#103=DATE_AND_TIME(#104,#105);
#104=CALENDAR_DATE(2018,25,9);
#105=LOCAL_TIME(10,49,35.,#106);
#106=COORDINATED_UNIVERSAL_TIME_OFFSET(0,0,.BEHIND.);
#107=AXIS2_PLACEMENT_3D('placement',#146,#119,#120);
#108=AXIS2_PLACEMENT_3D('',#147,#121,#122);
#109=AXIS2_PLACEMENT_3D('',#149,#123,#124);
#110=AXIS2_PLACEMENT_3D('',#152,#126,#127);
#111=AXIS2_PLACEMENT_3D('',#153,#128,#129);
#112=AXIS2_PLACEMENT_3D('',#155,#130,#131);
#113=AXIS2_PLACEMENT_3D('',#158,#133,#134);
#114=AXIS2_PLACEMENT_3D('',#159,#135,#136);
#115=AXIS2_PLACEMENT_3D('',#161,#137,#138);
#116=AXIS2_PLACEMENT_3D('',#164,#140,#141);
#117=AXIS2_PLACEMENT_3D('',#165,#142,#143);
#118=AXIS2_PLACEMENT_3D('',#166,#144,#145);
#119=DIRECTION('axis',(0.,0.,1.));
#120=DIRECTION('refdir',(1.,0.,0.));
#121=DIRECTION('center_axis',(0.,0.,1.));
#122=DIRECTION('ref_axis',(-1.,0.,0.));
#123=DIRECTION('center_axis',(0.,0.,1.));
#124=DIRECTION('ref_axis',(-1.,0.,0.));
#125=DIRECTION('',(0.,0.,1.));
#126=DIRECTION('center_axis',(0.,0.,-1.));
#127=DIRECTION('ref_axis',(-1.,0.,0.));
#128=DIRECTION('center_axis',(0.,0.,1.));
#129=DIRECTION('ref_axis',(-1.,0.,0.));
#130=DIRECTION('center_axis',(0.,0.,1.));
#131=DIRECTION('ref_axis',(-1.,0.,0.));
#132=DIRECTION('',(0.,0.,1.));
#133=DIRECTION('center_axis',(0.,0.,-1.));
#134=DIRECTION('ref_axis',(-1.,0.,0.));
#135=DIRECTION('center_axis',(0.,0.,1.));
#136=DIRECTION('ref_axis',(-1.,0.,0.));
#137=DIRECTION('center_axis',(0.,0.,1.));
#138=DIRECTION('ref_axis',(-1.,0.,0.));
#139=DIRECTION('',(0.,0.,-1.));
#140=DIRECTION('center_axis',(0.,0.,-1.));
#141=DIRECTION('ref_axis',(-1.,0.,0.));
#142=DIRECTION('center_axis',(0.,0.,1.));
#143=DIRECTION('ref_axis',(1.,0.,0.));
#144=DIRECTION('center_axis',(0.,0.,1.));
#145=DIRECTION('ref_axis',(1.,0.,0.));
#146=CARTESIAN_POINT('',(0.,0.,0.));
#147=CARTESIAN_POINT('Origin',(0.58,0.,0.));
#148=CARTESIAN_POINT('',(0.98,4.89858719658941E-17,0.));
#149=CARTESIAN_POINT('Origin',(0.58,0.,0.));
#150=CARTESIAN_POINT('',(0.98,4.89858719658941E-17,50.));
#151=CARTESIAN_POINT('',(0.98,4.89858719658941E-17,0.));
#152=CARTESIAN_POINT('Origin',(0.58,0.,50.));
#153=CARTESIAN_POINT('Origin',(-0.58,0.,0.));
#154=CARTESIAN_POINT('',(-0.18,4.89858719658941E-17,0.));
#155=CARTESIAN_POINT('Origin',(-0.58,0.,0.));
#156=CARTESIAN_POINT('',(-0.18,4.89858719658941E-17,50.));
#157=CARTESIAN_POINT('',(-0.18,4.89858719658941E-17,0.));
#158=CARTESIAN_POINT('Origin',(-0.58,0.,50.));
#159=CARTESIAN_POINT('Origin',(0.,0.,0.));
#160=CARTESIAN_POINT('',(1.5,1.83697019872103E-16,50.));
#161=CARTESIAN_POINT('Origin',(0.,0.,50.));
#162=CARTESIAN_POINT('',(1.5,1.83697019872103E-16,0.));
#163=CARTESIAN_POINT('',(1.5,1.83697019872103E-16,0.));
#164=CARTESIAN_POINT('Origin',(0.,0.,0.));
#165=CARTESIAN_POINT('Origin',(-1.69505727298391E-16,3.85494105772624E-17,
0.));
#166=CARTESIAN_POINT('Origin',(-1.69505727298391E-16,3.85494105772624E-17,
50.));
#167=UNCERTAINTY_MEASURE_WITH_UNIT(LENGTH_MEASURE(0.01),#171,
'DISTANCE_ACCURACY_VALUE',
'Maximum model space distance between geometric entities at asserted c
onnectivities');
#168=UNCERTAINTY_MEASURE_WITH_UNIT(LENGTH_MEASURE(0.01),#171,
'DISTANCE_ACCURACY_VALUE',
'Maximum model space distance between geometric entities at asserted c
onnectivities');
#169=(
GEOMETRIC_REPRESENTATION_CONTEXT(3)
GLOBAL_UNCERTAINTY_ASSIGNED_CONTEXT((#167))
GLOBAL_UNIT_ASSIGNED_CONTEXT((#171,#173,#174))
REPRESENTATION_CONTEXT('','3D')
);
#170=(
GEOMETRIC_REPRESENTATION_CONTEXT(3)
GLOBAL_UNCERTAINTY_ASSIGNED_CONTEXT((#168))
GLOBAL_UNIT_ASSIGNED_CONTEXT((#171,#173,#174))
REPRESENTATION_CONTEXT('','3D')
);
#171=(
LENGTH_UNIT()
NAMED_UNIT(*)
SI_UNIT(.MILLI.,.METRE.)
);
#172=(
LENGTH_UNIT()
NAMED_UNIT(*)
SI_UNIT(.CENTI.,.METRE.)
);
#173=(
NAMED_UNIT(*)
PLANE_ANGLE_UNIT()
SI_UNIT($,.RADIAN.)
);
#174=(
NAMED_UNIT(*)
SI_UNIT($,.STERADIAN.)
SOLID_ANGLE_UNIT()
);
#175=SHAPE_DEFINITION_REPRESENTATION(#176,#177);
#176=PRODUCT_DEFINITION_SHAPE('',$,#179);
#177=SHAPE_REPRESENTATION('',(#107),#169);
#178=PRODUCT_DEFINITION_CONTEXT('part definition',#183,'design');
#179=PRODUCT_DEFINITION('A-CT3_08-2-50','A-CT3_08-2-50',#180,#178);
#180=PRODUCT_DEFINITION_FORMATION('',$,#185);
#181=PRODUCT_RELATED_PRODUCT_CATEGORY('A-CT3_08-2-50','A-CT3_08-2-50',(#185));
#182=APPLICATION_PROTOCOL_DEFINITION('international standard',
'automotive_design',2009,#183);
#183=APPLICATION_CONTEXT(
'Core Data for Automotive Mechanical Design Process');
#184=PRODUCT_CONTEXT('part definition',#183,'mechanical');
#185=PRODUCT('A-CT3_08-2-50','A-CT3_08-2-50',$,(#184));
#186=PRESENTATION_STYLE_ASSIGNMENT((#187));
#187=SURFACE_STYLE_USAGE(.BOTH.,#190);
#188=SURFACE_STYLE_RENDERING_WITH_PROPERTIES($,#194,(#189));
#189=SURFACE_STYLE_TRANSPARENT(1.);
#190=SURFACE_SIDE_STYLE('',(#191,#188));
#191=SURFACE_STYLE_FILL_AREA(#192);
#192=FILL_AREA_STYLE('',(#193));
#193=FILL_AREA_STYLE_COLOUR('',#194);
#194=COLOUR_RGB('',0.901960784313726,0.901960784313726,0.815686274509804);
ENDSEC;
END-ISO-10303-21;
