ISO-10303-21;
HEADER;
/* Generated by software containing ST-Developer
 * from STEP Tools, Inc. (www.steptools.com) 
 */

FILE_DESCRIPTION(
/* description */ (''),
/* implementation_level */ '2;1');

FILE_NAME(
/* name */ 'G:\\ACCESSORIES\\Ceramic Parts\\Step Files\\A-CSB3.5M.stp',

/* time_stamp */ '2018-09-21T16:02:00+01:00',
/* author */ ('paul'),
/* organization */ (''),
/* preprocessor_version */ 'ST-DEVELOPER v17.2',
/* originating_system */ 'Autodesk Inventor 2019',
/* authorisation */ '');

FILE_SCHEMA (('AUTOMOTIVE_DESIGN { 1 0 10303 214 3 1 1 }'));
ENDSEC;

DATA;
#10=MECHANICAL_DESIGN_GEOMETRIC_PRESENTATION_REPRESENTATION('',(#13),#392);
#11=SHAPE_REPRESENTATION_RELATIONSHIP('SRR','None',#399,#12);
#12=ADVANCED_BREP_SHAPE_REPRESENTATION('',(#14),#391);
#13=STYLED_ITEM('',(#408),#14);
#14=MANIFOLD_SOLID_BREP('Solid1',#198);
#15=FACE_BOUND('',#45,.T.);
#16=FACE_BOUND('',#48,.T.);
#17=FACE_BOUND('',#52,.T.);
#18=PLANE('',#226);
#19=PLANE('',#231);
#20=PLANE('',#243);
#21=LINE('',#344,#24);
#22=LINE('',#370,#25);
#23=LINE('',#385,#26);
#24=VECTOR('',#270,1.9);
#25=VECTOR('',#303,3.75);
#26=VECTOR('',#324,6.);
#27=CYLINDRICAL_SURFACE('',#224,1.9);
#28=CYLINDRICAL_SURFACE('',#240,3.75);
#29=CYLINDRICAL_SURFACE('',#250,6.);
#30=FACE_OUTER_BOUND('',#42,.T.);
#31=FACE_OUTER_BOUND('',#43,.T.);
#32=FACE_OUTER_BOUND('',#44,.T.);
#33=FACE_OUTER_BOUND('',#46,.T.);
#34=FACE_OUTER_BOUND('',#47,.T.);
#35=FACE_OUTER_BOUND('',#49,.T.);
#36=FACE_OUTER_BOUND('',#50,.T.);
#37=FACE_OUTER_BOUND('',#51,.T.);
#38=FACE_OUTER_BOUND('',#53,.T.);
#39=FACE_OUTER_BOUND('',#54,.T.);
#40=FACE_OUTER_BOUND('',#55,.T.);
#41=FACE_OUTER_BOUND('',#56,.T.);
#42=EDGE_LOOP('',(#126,#127,#128,#129,#130,#131));
#43=EDGE_LOOP('',(#132,#133,#134,#135,#136));
#44=EDGE_LOOP('',(#137));
#45=EDGE_LOOP('',(#138,#139));
#46=EDGE_LOOP('',(#140,#141,#142,#143));
#47=EDGE_LOOP('',(#144,#145));
#48=EDGE_LOOP('',(#146));
#49=EDGE_LOOP('',(#147,#148,#149,#150,#151,#152));
#50=EDGE_LOOP('',(#153,#154,#155,#156,#157,#158));
#51=EDGE_LOOP('',(#159));
#52=EDGE_LOOP('',(#160,#161));
#53=EDGE_LOOP('',(#162,#163,#164,#165,#166,#167));
#54=EDGE_LOOP('',(#168,#169,#170,#171));
#55=EDGE_LOOP('',(#172,#173,#174,#175));
#56=EDGE_LOOP('',(#176,#177,#178,#179));
#57=CIRCLE('',#219,1.91);
#58=CIRCLE('',#220,0.01);
#59=CIRCLE('',#221,1.9);
#60=CIRCLE('',#222,1.9);
#61=CIRCLE('',#223,1.91);
#62=CIRCLE('',#225,1.9);
#63=CIRCLE('',#227,5.99);
#64=CIRCLE('',#229,1.91);
#65=CIRCLE('',#230,0.01);
#66=CIRCLE('',#232,3.74);
#67=CIRCLE('',#233,3.74);
#68=CIRCLE('',#235,3.76);
#69=CIRCLE('',#236,0.01);
#70=CIRCLE('',#237,3.75);
#71=CIRCLE('',#238,3.75);
#72=CIRCLE('',#239,3.76);
#73=CIRCLE('',#241,3.75);
#74=CIRCLE('',#242,3.75);
#75=CIRCLE('',#244,5.99);
#76=CIRCLE('',#246,0.01);
#77=CIRCLE('',#248,6.);
#78=CIRCLE('',#249,0.01);
#79=CIRCLE('',#251,6.);
#80=CIRCLE('',#253,0.01);
#81=VERTEX_POINT('',#333);
#82=VERTEX_POINT('',#334);
#83=VERTEX_POINT('',#336);
#84=VERTEX_POINT('',#338);
#85=VERTEX_POINT('',#343);
#86=VERTEX_POINT('',#347);
#87=VERTEX_POINT('',#350);
#88=VERTEX_POINT('',#354);
#89=VERTEX_POINT('',#355);
#90=VERTEX_POINT('',#359);
#91=VERTEX_POINT('',#360);
#92=VERTEX_POINT('',#362);
#93=VERTEX_POINT('',#364);
#94=VERTEX_POINT('',#369);
#95=VERTEX_POINT('',#371);
#96=VERTEX_POINT('',#375);
#97=VERTEX_POINT('',#380);
#98=VERTEX_POINT('',#384);
#99=EDGE_CURVE('',#81,#82,#57,.T.);
#100=EDGE_CURVE('',#82,#83,#58,.T.);
#101=EDGE_CURVE('',#83,#84,#59,.T.);
#102=EDGE_CURVE('',#84,#83,#60,.T.);
#103=EDGE_CURVE('',#82,#81,#61,.T.);
#104=EDGE_CURVE('',#84,#85,#21,.T.);
#105=EDGE_CURVE('',#85,#85,#62,.T.);
#106=EDGE_CURVE('',#86,#86,#63,.T.);
#107=EDGE_CURVE('',#87,#87,#64,.T.);
#108=EDGE_CURVE('',#87,#85,#65,.T.);
#109=EDGE_CURVE('',#88,#89,#66,.T.);
#110=EDGE_CURVE('',#89,#88,#67,.T.);
#111=EDGE_CURVE('',#90,#91,#68,.T.);
#112=EDGE_CURVE('',#91,#92,#69,.T.);
#113=EDGE_CURVE('',#92,#93,#70,.T.);
#114=EDGE_CURVE('',#93,#92,#71,.T.);
#115=EDGE_CURVE('',#91,#90,#72,.T.);
#116=EDGE_CURVE('',#93,#94,#22,.T.);
#117=EDGE_CURVE('',#95,#94,#73,.T.);
#118=EDGE_CURVE('',#94,#95,#74,.T.);
#119=EDGE_CURVE('',#96,#96,#75,.T.);
#120=EDGE_CURVE('',#89,#95,#76,.T.);
#121=EDGE_CURVE('',#97,#97,#77,.T.);
#122=EDGE_CURVE('',#97,#96,#78,.T.);
#123=EDGE_CURVE('',#97,#98,#23,.T.);
#124=EDGE_CURVE('',#98,#98,#79,.T.);
#125=EDGE_CURVE('',#86,#98,#80,.T.);
#126=ORIENTED_EDGE('',*,*,#99,.T.);
#127=ORIENTED_EDGE('',*,*,#100,.T.);
#128=ORIENTED_EDGE('',*,*,#101,.T.);
#129=ORIENTED_EDGE('',*,*,#102,.T.);
#130=ORIENTED_EDGE('',*,*,#100,.F.);
#131=ORIENTED_EDGE('',*,*,#103,.T.);
#132=ORIENTED_EDGE('',*,*,#102,.F.);
#133=ORIENTED_EDGE('',*,*,#104,.T.);
#134=ORIENTED_EDGE('',*,*,#105,.F.);
#135=ORIENTED_EDGE('',*,*,#104,.F.);
#136=ORIENTED_EDGE('',*,*,#101,.F.);
#137=ORIENTED_EDGE('',*,*,#106,.F.);
#138=ORIENTED_EDGE('',*,*,#99,.F.);
#139=ORIENTED_EDGE('',*,*,#103,.F.);
#140=ORIENTED_EDGE('',*,*,#107,.T.);
#141=ORIENTED_EDGE('',*,*,#108,.T.);
#142=ORIENTED_EDGE('',*,*,#105,.T.);
#143=ORIENTED_EDGE('',*,*,#108,.F.);
#144=ORIENTED_EDGE('',*,*,#109,.F.);
#145=ORIENTED_EDGE('',*,*,#110,.F.);
#146=ORIENTED_EDGE('',*,*,#107,.F.);
#147=ORIENTED_EDGE('',*,*,#111,.T.);
#148=ORIENTED_EDGE('',*,*,#112,.T.);
#149=ORIENTED_EDGE('',*,*,#113,.T.);
#150=ORIENTED_EDGE('',*,*,#114,.T.);
#151=ORIENTED_EDGE('',*,*,#112,.F.);
#152=ORIENTED_EDGE('',*,*,#115,.T.);
#153=ORIENTED_EDGE('',*,*,#114,.F.);
#154=ORIENTED_EDGE('',*,*,#116,.T.);
#155=ORIENTED_EDGE('',*,*,#117,.F.);
#156=ORIENTED_EDGE('',*,*,#118,.F.);
#157=ORIENTED_EDGE('',*,*,#116,.F.);
#158=ORIENTED_EDGE('',*,*,#113,.F.);
#159=ORIENTED_EDGE('',*,*,#119,.F.);
#160=ORIENTED_EDGE('',*,*,#111,.F.);
#161=ORIENTED_EDGE('',*,*,#115,.F.);
#162=ORIENTED_EDGE('',*,*,#109,.T.);
#163=ORIENTED_EDGE('',*,*,#120,.T.);
#164=ORIENTED_EDGE('',*,*,#117,.T.);
#165=ORIENTED_EDGE('',*,*,#118,.T.);
#166=ORIENTED_EDGE('',*,*,#120,.F.);
#167=ORIENTED_EDGE('',*,*,#110,.T.);
#168=ORIENTED_EDGE('',*,*,#121,.T.);
#169=ORIENTED_EDGE('',*,*,#122,.T.);
#170=ORIENTED_EDGE('',*,*,#119,.T.);
#171=ORIENTED_EDGE('',*,*,#122,.F.);
#172=ORIENTED_EDGE('',*,*,#121,.F.);
#173=ORIENTED_EDGE('',*,*,#123,.T.);
#174=ORIENTED_EDGE('',*,*,#124,.F.);
#175=ORIENTED_EDGE('',*,*,#123,.F.);
#176=ORIENTED_EDGE('',*,*,#106,.T.);
#177=ORIENTED_EDGE('',*,*,#125,.T.);
#178=ORIENTED_EDGE('',*,*,#124,.T.);
#179=ORIENTED_EDGE('',*,*,#125,.F.);
#180=TOROIDAL_SURFACE('',#218,1.91,0.01);
#181=TOROIDAL_SURFACE('',#228,1.91,0.01);
#182=TOROIDAL_SURFACE('',#234,3.76,0.01);
#183=TOROIDAL_SURFACE('',#245,3.74,0.01);
#184=TOROIDAL_SURFACE('',#247,5.99,0.01);
#185=TOROIDAL_SURFACE('',#252,5.99,0.01);
#186=ADVANCED_FACE('',(#30),#180,.T.);
#187=ADVANCED_FACE('',(#31),#27,.F.);
#188=ADVANCED_FACE('',(#32,#15),#18,.F.);
#189=ADVANCED_FACE('',(#33),#181,.T.);
#190=ADVANCED_FACE('',(#34,#16),#19,.T.);
#191=ADVANCED_FACE('',(#35),#182,.F.);
#192=ADVANCED_FACE('',(#36),#28,.T.);
#193=ADVANCED_FACE('',(#37,#17),#20,.T.);
#194=ADVANCED_FACE('',(#38),#183,.T.);
#195=ADVANCED_FACE('',(#39),#184,.T.);
#196=ADVANCED_FACE('',(#40),#29,.T.);
#197=ADVANCED_FACE('',(#41),#185,.T.);
#198=CLOSED_SHELL('',(#186,#187,#188,#189,#190,#191,#192,#193,#194,#195,
#196,#197));
#199=DERIVED_UNIT_ELEMENT(#201,1.);
#200=DERIVED_UNIT_ELEMENT(#394,3.);
#201=(
MASS_UNIT()
NAMED_UNIT(*)
SI_UNIT($,.GRAM.)
);
#202=DERIVED_UNIT((#199,#200));
#203=MEASURE_REPRESENTATION_ITEM('density measure',
POSITIVE_RATIO_MEASURE(1.),#202);
#204=PROPERTY_DEFINITION_REPRESENTATION(#209,#206);
#205=PROPERTY_DEFINITION_REPRESENTATION(#210,#207);
#206=REPRESENTATION('material name',(#208),#391);
#207=REPRESENTATION('density',(#203),#391);
#208=DESCRIPTIVE_REPRESENTATION_ITEM('Steatite','Steatite');
#209=PROPERTY_DEFINITION('material property','material name',#401);
#210=PROPERTY_DEFINITION('material property','density of part',#401);
#211=DATE_TIME_ROLE('creation_date');
#212=APPLIED_DATE_AND_TIME_ASSIGNMENT(#213,#211,(#401));
#213=DATE_AND_TIME(#214,#215);
#214=CALENDAR_DATE(2018,21,9);
#215=LOCAL_TIME(13,58,48.,#216);
#216=COORDINATED_UNIVERSAL_TIME_OFFSET(0,0,.BEHIND.);
#217=AXIS2_PLACEMENT_3D('placement',#331,#254,#255);
#218=AXIS2_PLACEMENT_3D('',#332,#256,#257);
#219=AXIS2_PLACEMENT_3D('',#335,#258,#259);
#220=AXIS2_PLACEMENT_3D('',#337,#260,#261);
#221=AXIS2_PLACEMENT_3D('',#339,#262,#263);
#222=AXIS2_PLACEMENT_3D('',#340,#264,#265);
#223=AXIS2_PLACEMENT_3D('',#341,#266,#267);
#224=AXIS2_PLACEMENT_3D('',#342,#268,#269);
#225=AXIS2_PLACEMENT_3D('',#345,#271,#272);
#226=AXIS2_PLACEMENT_3D('',#346,#273,#274);
#227=AXIS2_PLACEMENT_3D('',#348,#275,#276);
#228=AXIS2_PLACEMENT_3D('',#349,#277,#278);
#229=AXIS2_PLACEMENT_3D('',#351,#279,#280);
#230=AXIS2_PLACEMENT_3D('',#352,#281,#282);
#231=AXIS2_PLACEMENT_3D('',#353,#283,#284);
#232=AXIS2_PLACEMENT_3D('',#356,#285,#286);
#233=AXIS2_PLACEMENT_3D('',#357,#287,#288);
#234=AXIS2_PLACEMENT_3D('',#358,#289,#290);
#235=AXIS2_PLACEMENT_3D('',#361,#291,#292);
#236=AXIS2_PLACEMENT_3D('',#363,#293,#294);
#237=AXIS2_PLACEMENT_3D('',#365,#295,#296);
#238=AXIS2_PLACEMENT_3D('',#366,#297,#298);
#239=AXIS2_PLACEMENT_3D('',#367,#299,#300);
#240=AXIS2_PLACEMENT_3D('',#368,#301,#302);
#241=AXIS2_PLACEMENT_3D('',#372,#304,#305);
#242=AXIS2_PLACEMENT_3D('',#373,#306,#307);
#243=AXIS2_PLACEMENT_3D('',#374,#308,#309);
#244=AXIS2_PLACEMENT_3D('',#376,#310,#311);
#245=AXIS2_PLACEMENT_3D('',#377,#312,#313);
#246=AXIS2_PLACEMENT_3D('',#378,#314,#315);
#247=AXIS2_PLACEMENT_3D('',#379,#316,#317);
#248=AXIS2_PLACEMENT_3D('',#381,#318,#319);
#249=AXIS2_PLACEMENT_3D('',#382,#320,#321);
#250=AXIS2_PLACEMENT_3D('',#383,#322,#323);
#251=AXIS2_PLACEMENT_3D('',#386,#325,#326);
#252=AXIS2_PLACEMENT_3D('',#387,#327,#328);
#253=AXIS2_PLACEMENT_3D('',#388,#329,#330);
#254=DIRECTION('axis',(0.,0.,1.));
#255=DIRECTION('refdir',(1.,0.,0.));
#256=DIRECTION('center_axis',(0.,0.,1.));
#257=DIRECTION('ref_axis',(1.,0.,0.));
#258=DIRECTION('center_axis',(0.,0.,-1.));
#259=DIRECTION('ref_axis',(-1.,0.,0.));
#260=DIRECTION('center_axis',(1.22464679914735E-16,-1.,0.));
#261=DIRECTION('ref_axis',(-1.,-1.22464679914735E-16,0.));
#262=DIRECTION('center_axis',(0.,0.,1.));
#263=DIRECTION('ref_axis',(-1.,0.,0.));
#264=DIRECTION('center_axis',(0.,0.,1.));
#265=DIRECTION('ref_axis',(-1.,0.,0.));
#266=DIRECTION('center_axis',(0.,0.,-1.));
#267=DIRECTION('ref_axis',(-1.,0.,0.));
#268=DIRECTION('center_axis',(0.,0.,1.));
#269=DIRECTION('ref_axis',(-1.,0.,0.));
#270=DIRECTION('',(0.,0.,1.));
#271=DIRECTION('center_axis',(0.,0.,-1.));
#272=DIRECTION('ref_axis',(-1.,0.,0.));
#273=DIRECTION('center_axis',(0.,0.,1.));
#274=DIRECTION('ref_axis',(1.,0.,0.));
#275=DIRECTION('center_axis',(0.,0.,1.));
#276=DIRECTION('ref_axis',(-1.,0.,0.));
#277=DIRECTION('center_axis',(0.,0.,-1.));
#278=DIRECTION('ref_axis',(-1.,0.,0.));
#279=DIRECTION('center_axis',(0.,0.,1.));
#280=DIRECTION('ref_axis',(-1.,0.,0.));
#281=DIRECTION('center_axis',(-1.22464679914735E-16,-1.,0.));
#282=DIRECTION('ref_axis',(1.,-1.22464679914735E-16,0.));
#283=DIRECTION('center_axis',(0.,0.,1.));
#284=DIRECTION('ref_axis',(1.,0.,0.));
#285=DIRECTION('center_axis',(0.,0.,-1.));
#286=DIRECTION('ref_axis',(-1.,0.,0.));
#287=DIRECTION('center_axis',(0.,0.,-1.));
#288=DIRECTION('ref_axis',(-1.,0.,0.));
#289=DIRECTION('center_axis',(0.,0.,1.));
#290=DIRECTION('ref_axis',(1.,0.,0.));
#291=DIRECTION('center_axis',(0.,0.,1.));
#292=DIRECTION('ref_axis',(-1.,0.,0.));
#293=DIRECTION('center_axis',(1.22464679914735E-16,-1.,0.));
#294=DIRECTION('ref_axis',(-1.,-1.22464679914735E-16,0.));
#295=DIRECTION('center_axis',(0.,0.,-1.));
#296=DIRECTION('ref_axis',(-1.,0.,0.));
#297=DIRECTION('center_axis',(0.,0.,-1.));
#298=DIRECTION('ref_axis',(-1.,0.,0.));
#299=DIRECTION('center_axis',(0.,0.,1.));
#300=DIRECTION('ref_axis',(-1.,0.,0.));
#301=DIRECTION('center_axis',(0.,0.,-1.));
#302=DIRECTION('ref_axis',(-1.,0.,0.));
#303=DIRECTION('',(0.,0.,1.));
#304=DIRECTION('center_axis',(0.,0.,1.));
#305=DIRECTION('ref_axis',(-1.,0.,0.));
#306=DIRECTION('center_axis',(0.,0.,1.));
#307=DIRECTION('ref_axis',(-1.,0.,0.));
#308=DIRECTION('center_axis',(0.,0.,1.));
#309=DIRECTION('ref_axis',(1.,0.,0.));
#310=DIRECTION('center_axis',(0.,0.,-1.));
#311=DIRECTION('ref_axis',(-1.,0.,0.));
#312=DIRECTION('center_axis',(0.,0.,1.));
#313=DIRECTION('ref_axis',(1.,0.,0.));
#314=DIRECTION('center_axis',(1.22464679914735E-16,-1.,0.));
#315=DIRECTION('ref_axis',(-1.,-1.22464679914735E-16,0.));
#316=DIRECTION('center_axis',(0.,0.,-1.));
#317=DIRECTION('ref_axis',(-1.,0.,0.));
#318=DIRECTION('center_axis',(0.,0.,1.));
#319=DIRECTION('ref_axis',(-1.,0.,0.));
#320=DIRECTION('center_axis',(-1.22464679914735E-16,-1.,0.));
#321=DIRECTION('ref_axis',(1.,-1.22464679914735E-16,0.));
#322=DIRECTION('center_axis',(0.,0.,1.));
#323=DIRECTION('ref_axis',(-1.,0.,0.));
#324=DIRECTION('',(0.,0.,-1.));
#325=DIRECTION('center_axis',(0.,0.,-1.));
#326=DIRECTION('ref_axis',(-1.,0.,0.));
#327=DIRECTION('center_axis',(0.,0.,-1.));
#328=DIRECTION('ref_axis',(-1.,0.,0.));
#329=DIRECTION('center_axis',(-1.22464679914735E-16,-1.,0.));
#330=DIRECTION('ref_axis',(1.,-1.22464679914735E-16,0.));
#331=CARTESIAN_POINT('',(0.,0.,0.));
#332=CARTESIAN_POINT('Origin',(0.,0.,0.01));
#333=CARTESIAN_POINT('',(1.91,-2.33907538637144E-16,0.));
#334=CARTESIAN_POINT('',(-1.91,-2.33907538637144E-16,0.));
#335=CARTESIAN_POINT('Origin',(0.,0.,0.));
#336=CARTESIAN_POINT('',(-1.9,-2.32682891837997E-16,0.01));
#337=CARTESIAN_POINT('Origin',(-1.91,-2.33907538637144E-16,0.01));
#338=CARTESIAN_POINT('',(1.9,2.32682891837997E-16,0.01));
#339=CARTESIAN_POINT('Origin',(0.,0.,0.01));
#340=CARTESIAN_POINT('Origin',(0.,0.,0.01));
#341=CARTESIAN_POINT('Origin',(0.,0.,0.));
#342=CARTESIAN_POINT('Origin',(0.,0.,0.));
#343=CARTESIAN_POINT('',(1.9,-2.32682891837997E-16,6.39));
#344=CARTESIAN_POINT('',(1.9,2.32682891837997E-16,0.));
#345=CARTESIAN_POINT('Origin',(0.,0.,6.39));
#346=CARTESIAN_POINT('Origin',(-6.78022909193566E-16,1.54197642309049E-16,
0.));
#347=CARTESIAN_POINT('',(5.99,7.33563432689265E-16,0.));
#348=CARTESIAN_POINT('Origin',(0.,0.,0.));
#349=CARTESIAN_POINT('Origin',(0.,0.,6.39));
#350=CARTESIAN_POINT('',(1.91,2.33907538637144E-16,6.4));
#351=CARTESIAN_POINT('Origin',(0.,0.,6.4));
#352=CARTESIAN_POINT('Origin',(1.91,-2.33907538637144E-16,6.39));
#353=CARTESIAN_POINT('Origin',(-6.78022909193566E-16,1.54197642309049E-16,
6.4));
#354=CARTESIAN_POINT('',(3.74,-4.5801790288111E-16,6.4));
#355=CARTESIAN_POINT('',(-3.74,-4.5801790288111E-16,6.4));
#356=CARTESIAN_POINT('Origin',(0.,0.,6.4));
#357=CARTESIAN_POINT('Origin',(0.,0.,6.4));
#358=CARTESIAN_POINT('Origin',(0.,0.,3.41));
#359=CARTESIAN_POINT('',(3.76,4.60467196479405E-16,3.4));
#360=CARTESIAN_POINT('',(-3.76,-4.60467196479405E-16,3.4));
#361=CARTESIAN_POINT('Origin',(0.,0.,3.4));
#362=CARTESIAN_POINT('',(-3.75,-4.59242549680257E-16,3.41));
#363=CARTESIAN_POINT('Origin',(-3.76,-4.60467196479405E-16,3.41));
#364=CARTESIAN_POINT('',(3.75,-4.59242549680257E-16,3.41));
#365=CARTESIAN_POINT('Origin',(0.,0.,3.41));
#366=CARTESIAN_POINT('Origin',(0.,0.,3.41));
#367=CARTESIAN_POINT('Origin',(0.,0.,3.4));
#368=CARTESIAN_POINT('Origin',(0.,0.,6.4));
#369=CARTESIAN_POINT('',(3.75,4.59242549680257E-16,6.39));
#370=CARTESIAN_POINT('',(3.75,-4.59242549680257E-16,6.4));
#371=CARTESIAN_POINT('',(-3.75,-4.59242549680257E-16,6.39));
#372=CARTESIAN_POINT('Origin',(0.,0.,6.39));
#373=CARTESIAN_POINT('Origin',(0.,0.,6.39));
#374=CARTESIAN_POINT('Origin',(-6.78022909193566E-16,1.54197642309049E-16,
3.4));
#375=CARTESIAN_POINT('',(5.99,-7.33563432689265E-16,3.4));
#376=CARTESIAN_POINT('Origin',(0.,0.,3.4));
#377=CARTESIAN_POINT('Origin',(0.,0.,6.39));
#378=CARTESIAN_POINT('Origin',(-3.74,-4.5801790288111E-16,6.39));
#379=CARTESIAN_POINT('Origin',(0.,0.,3.39));
#380=CARTESIAN_POINT('',(6.,7.34788079488412E-16,3.39));
#381=CARTESIAN_POINT('Origin',(0.,0.,3.39));
#382=CARTESIAN_POINT('Origin',(5.99,-7.33563432689265E-16,3.39));
#383=CARTESIAN_POINT('Origin',(0.,0.,0.));
#384=CARTESIAN_POINT('',(6.,-7.34788079488412E-16,0.01));
#385=CARTESIAN_POINT('',(6.,7.34788079488412E-16,0.));
#386=CARTESIAN_POINT('Origin',(0.,0.,0.01));
#387=CARTESIAN_POINT('Origin',(0.,0.,0.01));
#388=CARTESIAN_POINT('Origin',(5.99,-7.33563432689265E-16,0.01));
#389=UNCERTAINTY_MEASURE_WITH_UNIT(LENGTH_MEASURE(0.01),#393,
'DISTANCE_ACCURACY_VALUE',
'Maximum model space distance between geometric entities at asserted c
onnectivities');
#390=UNCERTAINTY_MEASURE_WITH_UNIT(LENGTH_MEASURE(0.01),#393,
'DISTANCE_ACCURACY_VALUE',
'Maximum model space distance between geometric entities at asserted c
onnectivities');
#391=(
GEOMETRIC_REPRESENTATION_CONTEXT(3)
GLOBAL_UNCERTAINTY_ASSIGNED_CONTEXT((#389))
GLOBAL_UNIT_ASSIGNED_CONTEXT((#393,#395,#396))
REPRESENTATION_CONTEXT('','3D')
);
#392=(
GEOMETRIC_REPRESENTATION_CONTEXT(3)
GLOBAL_UNCERTAINTY_ASSIGNED_CONTEXT((#390))
GLOBAL_UNIT_ASSIGNED_CONTEXT((#393,#395,#396))
REPRESENTATION_CONTEXT('','3D')
);
#393=(
LENGTH_UNIT()
NAMED_UNIT(*)
SI_UNIT(.MILLI.,.METRE.)
);
#394=(
LENGTH_UNIT()
NAMED_UNIT(*)
SI_UNIT(.CENTI.,.METRE.)
);
#395=(
NAMED_UNIT(*)
PLANE_ANGLE_UNIT()
SI_UNIT($,.RADIAN.)
);
#396=(
NAMED_UNIT(*)
SI_UNIT($,.STERADIAN.)
SOLID_ANGLE_UNIT()
);
#397=SHAPE_DEFINITION_REPRESENTATION(#398,#399);
#398=PRODUCT_DEFINITION_SHAPE('',$,#401);
#399=SHAPE_REPRESENTATION('',(#217),#391);
#400=PRODUCT_DEFINITION_CONTEXT('part definition',#405,'design');
#401=PRODUCT_DEFINITION('A-CSB3.5M','A-CSB3.5M',#402,#400);
#402=PRODUCT_DEFINITION_FORMATION('',$,#407);
#403=PRODUCT_RELATED_PRODUCT_CATEGORY('A-CSB3.5M','A-CSB3.5M',(#407));
#404=APPLICATION_PROTOCOL_DEFINITION('international standard',
'automotive_design',2009,#405);
#405=APPLICATION_CONTEXT(
'Core Data for Automotive Mechanical Design Process');
#406=PRODUCT_CONTEXT('part definition',#405,'mechanical');
#407=PRODUCT('A-CSB3.5M','A-CSB3.5M',$,(#406));
#408=PRESENTATION_STYLE_ASSIGNMENT((#409));
#409=SURFACE_STYLE_USAGE(.BOTH.,#412);
#410=SURFACE_STYLE_RENDERING_WITH_PROPERTIES($,#416,(#411));
#411=SURFACE_STYLE_TRANSPARENT(1.);
#412=SURFACE_SIDE_STYLE('',(#413,#410));
#413=SURFACE_STYLE_FILL_AREA(#414);
#414=FILL_AREA_STYLE('',(#415));
#415=FILL_AREA_STYLE_COLOUR('',#416);
#416=COLOUR_RGB('',0.937254901960784,0.937254901960784,0.913725490196078);
ENDSEC;
END-ISO-10303-21;
