ISO-10303-21;
HEADER;
/* Generated by software containing ST-Developer
 * from STEP Tools, Inc. (www.steptools.com) 
 */

FILE_DESCRIPTION(
/* description */ (''),
/* implementation_level */ '2;1');

FILE_NAME(
/* name */ 'G:\\ACCESSORIES\\Ceramic Parts\\Step Files\\A-CSB1_4F.stp',

/* time_stamp */ '2018-09-21T16:04:20+01:00',
/* author */ ('paul'),
/* organization */ (''),
/* preprocessor_version */ 'ST-DEVELOPER v17.2',
/* originating_system */ 'Autodesk Inventor 2019',
/* authorisation */ '');

FILE_SCHEMA (('AUTOMOTIVE_DESIGN { 1 0 10303 214 3 1 1 }'));
ENDSEC;

DATA;
#10=MECHANICAL_DESIGN_GEOMETRIC_PRESENTATION_REPRESENTATION('',(#13),#366);
#11=SHAPE_REPRESENTATION_RELATIONSHIP('SRR','None',#373,#12);
#12=ADVANCED_BREP_SHAPE_REPRESENTATION('',(#14),#365);
#13=STYLED_ITEM('',(#382),#14);
#14=MANIFOLD_SOLID_BREP('Solid1',#185);
#15=FACE_BOUND('',#44,.T.);
#16=FACE_BOUND('',#47,.T.);
#17=FACE_BOUND('',#53,.T.);
#18=PLANE('',#214);
#19=PLANE('',#220);
#20=PLANE('',#234);
#21=LINE('',#324,#24);
#22=LINE('',#341,#25);
#23=LINE('',#350,#26);
#24=VECTOR('',#256,3.5);
#25=VECTOR('',#279,5.75);
#26=VECTOR('',#290,10.);
#27=CYLINDRICAL_SURFACE('',#211,3.5);
#28=CYLINDRICAL_SURFACE('',#223,5.75);
#29=CYLINDRICAL_SURFACE('',#228,10.);
#30=FACE_OUTER_BOUND('',#41,.T.);
#31=FACE_OUTER_BOUND('',#42,.T.);
#32=FACE_OUTER_BOUND('',#43,.T.);
#33=FACE_OUTER_BOUND('',#45,.T.);
#34=FACE_OUTER_BOUND('',#46,.T.);
#35=FACE_OUTER_BOUND('',#48,.T.);
#36=FACE_OUTER_BOUND('',#49,.T.);
#37=FACE_OUTER_BOUND('',#50,.T.);
#38=FACE_OUTER_BOUND('',#51,.T.);
#39=FACE_OUTER_BOUND('',#52,.T.);
#40=FACE_OUTER_BOUND('',#54,.T.);
#41=EDGE_LOOP('',(#119,#120,#121,#122,#123,#124));
#42=EDGE_LOOP('',(#125,#126,#127,#128,#129,#130));
#43=EDGE_LOOP('',(#131));
#44=EDGE_LOOP('',(#132,#133));
#45=EDGE_LOOP('',(#134,#135,#136,#137));
#46=EDGE_LOOP('',(#138,#139));
#47=EDGE_LOOP('',(#140));
#48=EDGE_LOOP('',(#141,#142,#143,#144));
#49=EDGE_LOOP('',(#145,#146,#147,#148,#149,#150));
#50=EDGE_LOOP('',(#151,#152,#153,#154,#155));
#51=EDGE_LOOP('',(#156,#157,#158,#159,#160,#161));
#52=EDGE_LOOP('',(#162));
#53=EDGE_LOOP('',(#163,#164));
#54=EDGE_LOOP('',(#165,#166,#167,#168));
#55=CIRCLE('',#206,3.5);
#56=CIRCLE('',#207,0.01);
#57=CIRCLE('',#208,3.51);
#58=CIRCLE('',#209,3.51);
#59=CIRCLE('',#210,3.5);
#60=CIRCLE('',#212,3.5);
#61=CIRCLE('',#213,3.5);
#62=CIRCLE('',#215,5.75);
#63=CIRCLE('',#217,5.76);
#64=CIRCLE('',#218,0.01);
#65=CIRCLE('',#219,5.75);
#66=CIRCLE('',#221,9.99);
#67=CIRCLE('',#222,9.99);
#68=CIRCLE('',#225,0.01);
#69=CIRCLE('',#226,10.);
#70=CIRCLE('',#227,10.);
#71=CIRCLE('',#229,10.);
#72=CIRCLE('',#231,3.51);
#73=CIRCLE('',#232,0.01);
#74=CIRCLE('',#233,3.51);
#75=CIRCLE('',#235,9.99);
#76=CIRCLE('',#237,0.01);
#77=VERTEX_POINT('',#311);
#78=VERTEX_POINT('',#312);
#79=VERTEX_POINT('',#314);
#80=VERTEX_POINT('',#316);
#81=VERTEX_POINT('',#321);
#82=VERTEX_POINT('',#322);
#83=VERTEX_POINT('',#327);
#84=VERTEX_POINT('',#330);
#85=VERTEX_POINT('',#332);
#86=VERTEX_POINT('',#336);
#87=VERTEX_POINT('',#337);
#88=VERTEX_POINT('',#343);
#89=VERTEX_POINT('',#345);
#90=VERTEX_POINT('',#349);
#91=VERTEX_POINT('',#353);
#92=VERTEX_POINT('',#354);
#93=VERTEX_POINT('',#359);
#94=EDGE_CURVE('',#77,#78,#55,.T.);
#95=EDGE_CURVE('',#78,#79,#56,.T.);
#96=EDGE_CURVE('',#79,#80,#57,.T.);
#97=EDGE_CURVE('',#80,#79,#58,.T.);
#98=EDGE_CURVE('',#78,#77,#59,.T.);
#99=EDGE_CURVE('',#81,#82,#60,.T.);
#100=EDGE_CURVE('',#81,#77,#21,.T.);
#101=EDGE_CURVE('',#82,#81,#61,.T.);
#102=EDGE_CURVE('',#83,#83,#62,.T.);
#103=EDGE_CURVE('',#84,#84,#63,.T.);
#104=EDGE_CURVE('',#84,#85,#64,.T.);
#105=EDGE_CURVE('',#85,#85,#65,.T.);
#106=EDGE_CURVE('',#86,#87,#66,.T.);
#107=EDGE_CURVE('',#87,#86,#67,.T.);
#108=EDGE_CURVE('',#85,#83,#22,.T.);
#109=EDGE_CURVE('',#87,#88,#68,.T.);
#110=EDGE_CURVE('',#88,#89,#69,.T.);
#111=EDGE_CURVE('',#89,#88,#70,.T.);
#112=EDGE_CURVE('',#89,#90,#23,.T.);
#113=EDGE_CURVE('',#90,#90,#71,.T.);
#114=EDGE_CURVE('',#91,#92,#72,.T.);
#115=EDGE_CURVE('',#92,#82,#73,.T.);
#116=EDGE_CURVE('',#92,#91,#74,.T.);
#117=EDGE_CURVE('',#93,#93,#75,.T.);
#118=EDGE_CURVE('',#93,#90,#76,.T.);
#119=ORIENTED_EDGE('',*,*,#94,.T.);
#120=ORIENTED_EDGE('',*,*,#95,.T.);
#121=ORIENTED_EDGE('',*,*,#96,.T.);
#122=ORIENTED_EDGE('',*,*,#97,.T.);
#123=ORIENTED_EDGE('',*,*,#95,.F.);
#124=ORIENTED_EDGE('',*,*,#98,.T.);
#125=ORIENTED_EDGE('',*,*,#99,.F.);
#126=ORIENTED_EDGE('',*,*,#100,.T.);
#127=ORIENTED_EDGE('',*,*,#98,.F.);
#128=ORIENTED_EDGE('',*,*,#94,.F.);
#129=ORIENTED_EDGE('',*,*,#100,.F.);
#130=ORIENTED_EDGE('',*,*,#101,.F.);
#131=ORIENTED_EDGE('',*,*,#102,.F.);
#132=ORIENTED_EDGE('',*,*,#97,.F.);
#133=ORIENTED_EDGE('',*,*,#96,.F.);
#134=ORIENTED_EDGE('',*,*,#103,.T.);
#135=ORIENTED_EDGE('',*,*,#104,.T.);
#136=ORIENTED_EDGE('',*,*,#105,.T.);
#137=ORIENTED_EDGE('',*,*,#104,.F.);
#138=ORIENTED_EDGE('',*,*,#106,.F.);
#139=ORIENTED_EDGE('',*,*,#107,.F.);
#140=ORIENTED_EDGE('',*,*,#103,.F.);
#141=ORIENTED_EDGE('',*,*,#105,.F.);
#142=ORIENTED_EDGE('',*,*,#108,.T.);
#143=ORIENTED_EDGE('',*,*,#102,.T.);
#144=ORIENTED_EDGE('',*,*,#108,.F.);
#145=ORIENTED_EDGE('',*,*,#106,.T.);
#146=ORIENTED_EDGE('',*,*,#109,.T.);
#147=ORIENTED_EDGE('',*,*,#110,.T.);
#148=ORIENTED_EDGE('',*,*,#111,.T.);
#149=ORIENTED_EDGE('',*,*,#109,.F.);
#150=ORIENTED_EDGE('',*,*,#107,.T.);
#151=ORIENTED_EDGE('',*,*,#111,.F.);
#152=ORIENTED_EDGE('',*,*,#112,.T.);
#153=ORIENTED_EDGE('',*,*,#113,.F.);
#154=ORIENTED_EDGE('',*,*,#112,.F.);
#155=ORIENTED_EDGE('',*,*,#110,.F.);
#156=ORIENTED_EDGE('',*,*,#114,.T.);
#157=ORIENTED_EDGE('',*,*,#115,.T.);
#158=ORIENTED_EDGE('',*,*,#101,.T.);
#159=ORIENTED_EDGE('',*,*,#99,.T.);
#160=ORIENTED_EDGE('',*,*,#115,.F.);
#161=ORIENTED_EDGE('',*,*,#116,.T.);
#162=ORIENTED_EDGE('',*,*,#117,.F.);
#163=ORIENTED_EDGE('',*,*,#114,.F.);
#164=ORIENTED_EDGE('',*,*,#116,.F.);
#165=ORIENTED_EDGE('',*,*,#117,.T.);
#166=ORIENTED_EDGE('',*,*,#118,.T.);
#167=ORIENTED_EDGE('',*,*,#113,.T.);
#168=ORIENTED_EDGE('',*,*,#118,.F.);
#169=TOROIDAL_SURFACE('',#205,3.51,0.01);
#170=TOROIDAL_SURFACE('',#216,5.76,0.01);
#171=TOROIDAL_SURFACE('',#224,9.99,0.01);
#172=TOROIDAL_SURFACE('',#230,3.51,0.01);
#173=TOROIDAL_SURFACE('',#236,9.99,0.01);
#174=ADVANCED_FACE('',(#30),#169,.T.);
#175=ADVANCED_FACE('',(#31),#27,.F.);
#176=ADVANCED_FACE('',(#32,#15),#18,.T.);
#177=ADVANCED_FACE('',(#33),#170,.T.);
#178=ADVANCED_FACE('',(#34,#16),#19,.T.);
#179=ADVANCED_FACE('',(#35),#28,.F.);
#180=ADVANCED_FACE('',(#36),#171,.T.);
#181=ADVANCED_FACE('',(#37),#29,.T.);
#182=ADVANCED_FACE('',(#38),#172,.T.);
#183=ADVANCED_FACE('',(#39,#17),#20,.F.);
#184=ADVANCED_FACE('',(#40),#173,.T.);
#185=CLOSED_SHELL('',(#174,#175,#176,#177,#178,#179,#180,#181,#182,#183,
#184));
#186=DERIVED_UNIT_ELEMENT(#188,1.);
#187=DERIVED_UNIT_ELEMENT(#368,3.);
#188=(
MASS_UNIT()
NAMED_UNIT(*)
SI_UNIT($,.GRAM.)
);
#189=DERIVED_UNIT((#186,#187));
#190=MEASURE_REPRESENTATION_ITEM('density measure',
POSITIVE_RATIO_MEASURE(1.),#189);
#191=PROPERTY_DEFINITION_REPRESENTATION(#196,#193);
#192=PROPERTY_DEFINITION_REPRESENTATION(#197,#194);
#193=REPRESENTATION('material name',(#195),#365);
#194=REPRESENTATION('density',(#190),#365);
#195=DESCRIPTIVE_REPRESENTATION_ITEM('Steatite','Steatite');
#196=PROPERTY_DEFINITION('material property','material name',#375);
#197=PROPERTY_DEFINITION('material property','density of part',#375);
#198=DATE_TIME_ROLE('creation_date');
#199=APPLIED_DATE_AND_TIME_ASSIGNMENT(#200,#198,(#375));
#200=DATE_AND_TIME(#201,#202);
#201=CALENDAR_DATE(2018,21,9);
#202=LOCAL_TIME(13,58,48.,#203);
#203=COORDINATED_UNIVERSAL_TIME_OFFSET(0,0,.BEHIND.);
#204=AXIS2_PLACEMENT_3D('placement',#309,#238,#239);
#205=AXIS2_PLACEMENT_3D('',#310,#240,#241);
#206=AXIS2_PLACEMENT_3D('',#313,#242,#243);
#207=AXIS2_PLACEMENT_3D('',#315,#244,#245);
#208=AXIS2_PLACEMENT_3D('',#317,#246,#247);
#209=AXIS2_PLACEMENT_3D('',#318,#248,#249);
#210=AXIS2_PLACEMENT_3D('',#319,#250,#251);
#211=AXIS2_PLACEMENT_3D('',#320,#252,#253);
#212=AXIS2_PLACEMENT_3D('',#323,#254,#255);
#213=AXIS2_PLACEMENT_3D('',#325,#257,#258);
#214=AXIS2_PLACEMENT_3D('',#326,#259,#260);
#215=AXIS2_PLACEMENT_3D('',#328,#261,#262);
#216=AXIS2_PLACEMENT_3D('',#329,#263,#264);
#217=AXIS2_PLACEMENT_3D('',#331,#265,#266);
#218=AXIS2_PLACEMENT_3D('',#333,#267,#268);
#219=AXIS2_PLACEMENT_3D('',#334,#269,#270);
#220=AXIS2_PLACEMENT_3D('',#335,#271,#272);
#221=AXIS2_PLACEMENT_3D('',#338,#273,#274);
#222=AXIS2_PLACEMENT_3D('',#339,#275,#276);
#223=AXIS2_PLACEMENT_3D('',#340,#277,#278);
#224=AXIS2_PLACEMENT_3D('',#342,#280,#281);
#225=AXIS2_PLACEMENT_3D('',#344,#282,#283);
#226=AXIS2_PLACEMENT_3D('',#346,#284,#285);
#227=AXIS2_PLACEMENT_3D('',#347,#286,#287);
#228=AXIS2_PLACEMENT_3D('',#348,#288,#289);
#229=AXIS2_PLACEMENT_3D('',#351,#291,#292);
#230=AXIS2_PLACEMENT_3D('',#352,#293,#294);
#231=AXIS2_PLACEMENT_3D('',#355,#295,#296);
#232=AXIS2_PLACEMENT_3D('',#356,#297,#298);
#233=AXIS2_PLACEMENT_3D('',#357,#299,#300);
#234=AXIS2_PLACEMENT_3D('',#358,#301,#302);
#235=AXIS2_PLACEMENT_3D('',#360,#303,#304);
#236=AXIS2_PLACEMENT_3D('',#361,#305,#306);
#237=AXIS2_PLACEMENT_3D('',#362,#307,#308);
#238=DIRECTION('axis',(0.,0.,1.));
#239=DIRECTION('refdir',(1.,0.,0.));
#240=DIRECTION('center_axis',(0.,0.,1.));
#241=DIRECTION('ref_axis',(1.,0.,0.));
#242=DIRECTION('center_axis',(0.,0.,-1.));
#243=DIRECTION('ref_axis',(-1.,0.,0.));
#244=DIRECTION('center_axis',(1.22464679914735E-16,-1.,0.));
#245=DIRECTION('ref_axis',(-1.,-1.22464679914735E-16,0.));
#246=DIRECTION('center_axis',(0.,0.,1.));
#247=DIRECTION('ref_axis',(-1.,0.,0.));
#248=DIRECTION('center_axis',(0.,0.,1.));
#249=DIRECTION('ref_axis',(-1.,0.,0.));
#250=DIRECTION('center_axis',(0.,0.,-1.));
#251=DIRECTION('ref_axis',(-1.,0.,0.));
#252=DIRECTION('center_axis',(0.,0.,1.));
#253=DIRECTION('ref_axis',(-1.,0.,0.));
#254=DIRECTION('center_axis',(0.,0.,1.));
#255=DIRECTION('ref_axis',(-1.,0.,0.));
#256=DIRECTION('',(0.,0.,1.));
#257=DIRECTION('center_axis',(0.,0.,1.));
#258=DIRECTION('ref_axis',(-1.,0.,0.));
#259=DIRECTION('center_axis',(0.,0.,1.));
#260=DIRECTION('ref_axis',(1.,0.,0.));
#261=DIRECTION('center_axis',(0.,0.,-1.));
#262=DIRECTION('ref_axis',(-1.,0.,0.));
#263=DIRECTION('center_axis',(0.,0.,-1.));
#264=DIRECTION('ref_axis',(-1.,0.,0.));
#265=DIRECTION('center_axis',(0.,0.,1.));
#266=DIRECTION('ref_axis',(-1.,0.,0.));
#267=DIRECTION('center_axis',(-1.22464679914735E-16,-1.,0.));
#268=DIRECTION('ref_axis',(1.,-1.22464679914735E-16,0.));
#269=DIRECTION('center_axis',(0.,0.,-1.));
#270=DIRECTION('ref_axis',(-1.,0.,0.));
#271=DIRECTION('center_axis',(0.,0.,1.));
#272=DIRECTION('ref_axis',(1.,0.,0.));
#273=DIRECTION('center_axis',(0.,0.,-1.));
#274=DIRECTION('ref_axis',(-1.,0.,0.));
#275=DIRECTION('center_axis',(0.,0.,-1.));
#276=DIRECTION('ref_axis',(-1.,0.,0.));
#277=DIRECTION('center_axis',(0.,0.,-1.));
#278=DIRECTION('ref_axis',(-1.,0.,0.));
#279=DIRECTION('',(0.,0.,-1.));
#280=DIRECTION('center_axis',(0.,0.,1.));
#281=DIRECTION('ref_axis',(1.,0.,0.));
#282=DIRECTION('center_axis',(1.22464679914735E-16,-1.,0.));
#283=DIRECTION('ref_axis',(-1.,-1.22464679914735E-16,0.));
#284=DIRECTION('center_axis',(0.,0.,1.));
#285=DIRECTION('ref_axis',(-1.,0.,0.));
#286=DIRECTION('center_axis',(0.,0.,1.));
#287=DIRECTION('ref_axis',(-1.,0.,0.));
#288=DIRECTION('center_axis',(0.,0.,1.));
#289=DIRECTION('ref_axis',(-1.,0.,0.));
#290=DIRECTION('',(0.,0.,-1.));
#291=DIRECTION('center_axis',(0.,0.,-1.));
#292=DIRECTION('ref_axis',(-1.,0.,0.));
#293=DIRECTION('center_axis',(0.,0.,1.));
#294=DIRECTION('ref_axis',(1.,0.,0.));
#295=DIRECTION('center_axis',(0.,0.,-1.));
#296=DIRECTION('ref_axis',(-1.,0.,0.));
#297=DIRECTION('center_axis',(1.22464679914735E-16,-1.,0.));
#298=DIRECTION('ref_axis',(-1.,-1.22464679914735E-16,0.));
#299=DIRECTION('center_axis',(0.,0.,-1.));
#300=DIRECTION('ref_axis',(-1.,0.,0.));
#301=DIRECTION('center_axis',(0.,0.,1.));
#302=DIRECTION('ref_axis',(1.,0.,0.));
#303=DIRECTION('center_axis',(0.,0.,1.));
#304=DIRECTION('ref_axis',(-1.,0.,0.));
#305=DIRECTION('center_axis',(0.,0.,-1.));
#306=DIRECTION('ref_axis',(-1.,0.,0.));
#307=DIRECTION('center_axis',(-1.22464679914735E-16,-1.,0.));
#308=DIRECTION('ref_axis',(1.,-1.22464679914735E-16,0.));
#309=CARTESIAN_POINT('',(0.,0.,0.));
#310=CARTESIAN_POINT('Origin',(0.,0.,2.99));
#311=CARTESIAN_POINT('',(3.5,-4.28626379701574E-16,2.99));
#312=CARTESIAN_POINT('',(-3.5,-4.28626379701574E-16,2.99));
#313=CARTESIAN_POINT('Origin',(0.,0.,2.99));
#314=CARTESIAN_POINT('',(-3.51,-4.29851026500721E-16,3.));
#315=CARTESIAN_POINT('Origin',(-3.51,-4.29851026500721E-16,2.99));
#316=CARTESIAN_POINT('',(3.51,4.29851026500721E-16,3.));
#317=CARTESIAN_POINT('Origin',(0.,0.,3.));
#318=CARTESIAN_POINT('Origin',(0.,0.,3.));
#319=CARTESIAN_POINT('Origin',(0.,0.,2.99));
#320=CARTESIAN_POINT('Origin',(0.,0.,0.));
#321=CARTESIAN_POINT('',(3.5,4.28626379701574E-16,0.01));
#322=CARTESIAN_POINT('',(-3.5,-4.28626379701574E-16,0.01));
#323=CARTESIAN_POINT('Origin',(0.,0.,0.01));
#324=CARTESIAN_POINT('',(3.5,4.28626379701574E-16,0.));
#325=CARTESIAN_POINT('Origin',(0.,0.,0.01));
#326=CARTESIAN_POINT('Origin',(-2.19582880085978E-16,0.,3.));
#327=CARTESIAN_POINT('',(5.75,7.04171909509728E-16,3.));
#328=CARTESIAN_POINT('Origin',(0.,0.,3.));
#329=CARTESIAN_POINT('Origin',(0.,0.,8.99));
#330=CARTESIAN_POINT('',(5.76,7.05396556308875E-16,9.));
#331=CARTESIAN_POINT('Origin',(0.,0.,9.));
#332=CARTESIAN_POINT('',(5.75,-7.04171909509728E-16,8.99));
#333=CARTESIAN_POINT('Origin',(5.76,-7.05396556308875E-16,8.99));
#334=CARTESIAN_POINT('Origin',(0.,0.,8.99));
#335=CARTESIAN_POINT('Origin',(-4.72128241470665E-16,0.,9.));
#336=CARTESIAN_POINT('',(9.99,-1.22342215234821E-15,9.));
#337=CARTESIAN_POINT('',(-9.99,-1.22342215234821E-15,9.));
#338=CARTESIAN_POINT('Origin',(0.,0.,9.));
#339=CARTESIAN_POINT('Origin',(0.,0.,9.));
#340=CARTESIAN_POINT('Origin',(0.,0.,9.));
#341=CARTESIAN_POINT('',(5.75,-7.04171909509728E-16,9.));
#342=CARTESIAN_POINT('Origin',(0.,0.,8.99));
#343=CARTESIAN_POINT('',(-10.,-1.22464679914735E-15,8.99));
#344=CARTESIAN_POINT('Origin',(-9.99,-1.22342215234821E-15,8.99));
#345=CARTESIAN_POINT('',(10.,1.22464679914735E-15,8.99));
#346=CARTESIAN_POINT('Origin',(0.,0.,8.99));
#347=CARTESIAN_POINT('Origin',(0.,0.,8.99));
#348=CARTESIAN_POINT('Origin',(0.,0.,0.));
#349=CARTESIAN_POINT('',(10.,-1.22464679914735E-15,0.01));
#350=CARTESIAN_POINT('',(10.,1.22464679914735E-15,0.));
#351=CARTESIAN_POINT('Origin',(0.,0.,0.01));
#352=CARTESIAN_POINT('Origin',(0.,0.,0.01));
#353=CARTESIAN_POINT('',(3.51,-4.29851026500721E-16,0.));
#354=CARTESIAN_POINT('',(-3.51,-4.29851026500721E-16,0.));
#355=CARTESIAN_POINT('Origin',(0.,0.,0.));
#356=CARTESIAN_POINT('Origin',(-3.51,-4.29851026500721E-16,0.01));
#357=CARTESIAN_POINT('Origin',(0.,0.,0.));
#358=CARTESIAN_POINT('Origin',(-4.72128241470665E-16,0.,0.));
#359=CARTESIAN_POINT('',(9.99,1.22342215234821E-15,0.));
#360=CARTESIAN_POINT('Origin',(0.,0.,0.));
#361=CARTESIAN_POINT('Origin',(0.,0.,0.01));
#362=CARTESIAN_POINT('Origin',(9.99,-1.22342215234821E-15,0.01));
#363=UNCERTAINTY_MEASURE_WITH_UNIT(LENGTH_MEASURE(0.01),#367,
'DISTANCE_ACCURACY_VALUE',
'Maximum model space distance between geometric entities at asserted c
onnectivities');
#364=UNCERTAINTY_MEASURE_WITH_UNIT(LENGTH_MEASURE(0.01),#367,
'DISTANCE_ACCURACY_VALUE',
'Maximum model space distance between geometric entities at asserted c
onnectivities');
#365=(
GEOMETRIC_REPRESENTATION_CONTEXT(3)
GLOBAL_UNCERTAINTY_ASSIGNED_CONTEXT((#363))
GLOBAL_UNIT_ASSIGNED_CONTEXT((#367,#369,#370))
REPRESENTATION_CONTEXT('','3D')
);
#366=(
GEOMETRIC_REPRESENTATION_CONTEXT(3)
GLOBAL_UNCERTAINTY_ASSIGNED_CONTEXT((#364))
GLOBAL_UNIT_ASSIGNED_CONTEXT((#367,#369,#370))
REPRESENTATION_CONTEXT('','3D')
);
#367=(
LENGTH_UNIT()
NAMED_UNIT(*)
SI_UNIT(.MILLI.,.METRE.)
);
#368=(
LENGTH_UNIT()
NAMED_UNIT(*)
SI_UNIT(.CENTI.,.METRE.)
);
#369=(
NAMED_UNIT(*)
PLANE_ANGLE_UNIT()
SI_UNIT($,.RADIAN.)
);
#370=(
NAMED_UNIT(*)
SI_UNIT($,.STERADIAN.)
SOLID_ANGLE_UNIT()
);
#371=SHAPE_DEFINITION_REPRESENTATION(#372,#373);
#372=PRODUCT_DEFINITION_SHAPE('',$,#375);
#373=SHAPE_REPRESENTATION('',(#204),#365);
#374=PRODUCT_DEFINITION_CONTEXT('part definition',#379,'design');
#375=PRODUCT_DEFINITION('A-CSB1_4F','A-CSB1_4F',#376,#374);
#376=PRODUCT_DEFINITION_FORMATION('',$,#381);
#377=PRODUCT_RELATED_PRODUCT_CATEGORY('A-CSB1_4F','A-CSB1_4F',(#381));
#378=APPLICATION_PROTOCOL_DEFINITION('international standard',
'automotive_design',2009,#379);
#379=APPLICATION_CONTEXT(
'Core Data for Automotive Mechanical Design Process');
#380=PRODUCT_CONTEXT('part definition',#379,'mechanical');
#381=PRODUCT('A-CSB1_4F','A-CSB1_4F',$,(#380));
#382=PRESENTATION_STYLE_ASSIGNMENT((#383));
#383=SURFACE_STYLE_USAGE(.BOTH.,#386);
#384=SURFACE_STYLE_RENDERING_WITH_PROPERTIES($,#390,(#385));
#385=SURFACE_STYLE_TRANSPARENT(1.);
#386=SURFACE_SIDE_STYLE('',(#387,#384));
#387=SURFACE_STYLE_FILL_AREA(#388);
#388=FILL_AREA_STYLE('',(#389));
#389=FILL_AREA_STYLE_COLOUR('',#390);
#390=COLOUR_RGB('',0.937254901960784,0.937254901960784,0.913725490196078);
ENDSEC;
END-ISO-10303-21;
