ISO-10303-21;
HEADER;
/* Generated by software containing ST-Developer
 * from STEP Tools, Inc. (www.steptools.com) 
 */

FILE_DESCRIPTION(
/* description */ (''),
/* implementation_level */ '2;1');

FILE_NAME(
/* name */ 
'G:\\FLANGES & FITTINGS\\Straight Reducers\\Step files\\FL-SR50-25KF.s
tp',
/* time_stamp */ '2018-11-09T12:44:18+00:00',
/* author */ ('paul'),
/* organization */ (''),
/* preprocessor_version */ 'ST-DEVELOPER v17.2',
/* originating_system */ 'Autodesk Inventor 2019',
/* authorisation */ '');

FILE_SCHEMA (('AUTOMOTIVE_DESIGN { 1 0 10303 214 3 1 1 }'));
ENDSEC;

DATA;
#10=MECHANICAL_DESIGN_GEOMETRIC_PRESENTATION_REPRESENTATION('',(#13),#501);
#11=SHAPE_REPRESENTATION_RELATIONSHIP('SRR','None',#508,#12);
#12=ADVANCED_BREP_SHAPE_REPRESENTATION('',(#14),#500);
#13=STYLED_ITEM('',(#517),#14);
#14=MANIFOLD_SOLID_BREP('Solid1',#263);
#15=FACE_BOUND('',#46,.T.);
#16=FACE_BOUND('',#49,.T.);
#17=FACE_BOUND('',#53,.T.);
#18=FACE_BOUND('',#56,.T.);
#19=FACE_BOUND('',#59,.T.);
#20=FACE_BOUND('',#62,.T.);
#21=PLANE('',#291);
#22=PLANE('',#297);
#23=PLANE('',#306);
#24=PLANE('',#312);
#25=PLANE('',#318);
#26=PLANE('',#324);
#27=CONICAL_SURFACE('',#288,16.2679491924311,1.30899693899575);
#28=CONICAL_SURFACE('',#300,33.7679491924311,1.30899693899575);
#29=FACE_OUTER_BOUND('',#43,.T.);
#30=FACE_OUTER_BOUND('',#44,.T.);
#31=FACE_OUTER_BOUND('',#45,.T.);
#32=FACE_OUTER_BOUND('',#47,.T.);
#33=FACE_OUTER_BOUND('',#48,.T.);
#34=FACE_OUTER_BOUND('',#50,.T.);
#35=FACE_OUTER_BOUND('',#51,.T.);
#36=FACE_OUTER_BOUND('',#52,.T.);
#37=FACE_OUTER_BOUND('',#54,.T.);
#38=FACE_OUTER_BOUND('',#55,.T.);
#39=FACE_OUTER_BOUND('',#57,.T.);
#40=FACE_OUTER_BOUND('',#58,.T.);
#41=FACE_OUTER_BOUND('',#60,.T.);
#42=FACE_OUTER_BOUND('',#61,.T.);
#43=EDGE_LOOP('',(#171,#172,#173,#174,#175,#176));
#44=EDGE_LOOP('',(#177,#178,#179,#180,#181,#182));
#45=EDGE_LOOP('',(#183,#184));
#46=EDGE_LOOP('',(#185,#186));
#47=EDGE_LOOP('',(#187,#188,#189,#190,#191,#192));
#48=EDGE_LOOP('',(#193,#194));
#49=EDGE_LOOP('',(#195,#196));
#50=EDGE_LOOP('',(#197,#198,#199,#200,#201,#202));
#51=EDGE_LOOP('',(#203,#204,#205,#206,#207,#208));
#52=EDGE_LOOP('',(#209,#210));
#53=EDGE_LOOP('',(#211,#212));
#54=EDGE_LOOP('',(#213,#214,#215,#216,#217,#218));
#55=EDGE_LOOP('',(#219,#220));
#56=EDGE_LOOP('',(#221,#222));
#57=EDGE_LOOP('',(#223,#224,#225,#226,#227,#228));
#58=EDGE_LOOP('',(#229,#230));
#59=EDGE_LOOP('',(#231,#232));
#60=EDGE_LOOP('',(#233,#234,#235,#236,#237,#238));
#61=EDGE_LOOP('',(#239,#240));
#62=EDGE_LOOP('',(#241,#242));
#63=LINE('',#426,#71);
#64=LINE('',#435,#72);
#65=LINE('',#446,#73);
#66=LINE('',#457,#74);
#67=LINE('',#463,#75);
#68=LINE('',#471,#76);
#69=LINE('',#482,#77);
#70=LINE('',#493,#78);
#71=VECTOR('',#333,20.);
#72=VECTOR('',#344,16.2679491924311);
#73=VECTOR('',#357,12.7);
#74=VECTOR('',#370,33.7679491924311);
#75=VECTOR('',#377,37.5);
#76=VECTOR('',#386,26.15);
#77=VECTOR('',#399,11.);
#78=VECTOR('',#412,13.1);
#79=CIRCLE('',#284,20.);
#80=CIRCLE('',#285,20.);
#81=CIRCLE('',#286,20.);
#82=CIRCLE('',#287,20.);
#83=CIRCLE('',#289,12.5358983848622);
#84=CIRCLE('',#290,12.5358983848622);
#85=CIRCLE('',#292,12.7);
#86=CIRCLE('',#293,12.7);
#87=CIRCLE('',#295,12.7);
#88=CIRCLE('',#296,12.7);
#89=CIRCLE('',#298,30.0358983848623);
#90=CIRCLE('',#299,30.0358983848623);
#91=CIRCLE('',#301,37.5);
#92=CIRCLE('',#302,37.5);
#93=CIRCLE('',#304,37.5);
#94=CIRCLE('',#305,37.5);
#95=CIRCLE('',#307,26.15);
#96=CIRCLE('',#308,26.15);
#97=CIRCLE('',#310,26.15);
#98=CIRCLE('',#311,26.15);
#99=CIRCLE('',#313,11.);
#100=CIRCLE('',#314,11.);
#101=CIRCLE('',#316,11.);
#102=CIRCLE('',#317,11.);
#103=CIRCLE('',#319,13.1);
#104=CIRCLE('',#320,13.1);
#105=CIRCLE('',#322,13.1);
#106=CIRCLE('',#323,13.1);
#107=VERTEX_POINT('',#421);
#108=VERTEX_POINT('',#422);
#109=VERTEX_POINT('',#425);
#110=VERTEX_POINT('',#427);
#111=VERTEX_POINT('',#431);
#112=VERTEX_POINT('',#432);
#113=VERTEX_POINT('',#437);
#114=VERTEX_POINT('',#438);
#115=VERTEX_POINT('',#442);
#116=VERTEX_POINT('',#443);
#117=VERTEX_POINT('',#448);
#118=VERTEX_POINT('',#449);
#119=VERTEX_POINT('',#453);
#120=VERTEX_POINT('',#454);
#121=VERTEX_POINT('',#459);
#122=VERTEX_POINT('',#460);
#123=VERTEX_POINT('',#465);
#124=VERTEX_POINT('',#466);
#125=VERTEX_POINT('',#470);
#126=VERTEX_POINT('',#472);
#127=VERTEX_POINT('',#476);
#128=VERTEX_POINT('',#477);
#129=VERTEX_POINT('',#481);
#130=VERTEX_POINT('',#483);
#131=VERTEX_POINT('',#487);
#132=VERTEX_POINT('',#488);
#133=VERTEX_POINT('',#492);
#134=VERTEX_POINT('',#494);
#135=EDGE_CURVE('',#107,#108,#79,.T.);
#136=EDGE_CURVE('',#108,#107,#80,.T.);
#137=EDGE_CURVE('',#108,#109,#63,.T.);
#138=EDGE_CURVE('',#109,#110,#81,.T.);
#139=EDGE_CURVE('',#110,#109,#82,.T.);
#140=EDGE_CURVE('',#111,#112,#83,.T.);
#141=EDGE_CURVE('',#112,#111,#84,.T.);
#142=EDGE_CURVE('',#112,#108,#64,.T.);
#143=EDGE_CURVE('',#113,#114,#85,.T.);
#144=EDGE_CURVE('',#114,#113,#86,.T.);
#145=EDGE_CURVE('',#115,#116,#87,.T.);
#146=EDGE_CURVE('',#116,#115,#88,.T.);
#147=EDGE_CURVE('',#116,#114,#65,.T.);
#148=EDGE_CURVE('',#117,#118,#89,.T.);
#149=EDGE_CURVE('',#118,#117,#90,.T.);
#150=EDGE_CURVE('',#119,#120,#91,.T.);
#151=EDGE_CURVE('',#120,#119,#92,.T.);
#152=EDGE_CURVE('',#120,#118,#66,.T.);
#153=EDGE_CURVE('',#121,#122,#93,.T.);
#154=EDGE_CURVE('',#122,#121,#94,.T.);
#155=EDGE_CURVE('',#122,#120,#67,.T.);
#156=EDGE_CURVE('',#123,#124,#95,.T.);
#157=EDGE_CURVE('',#124,#123,#96,.T.);
#158=EDGE_CURVE('',#124,#125,#68,.T.);
#159=EDGE_CURVE('',#126,#125,#97,.T.);
#160=EDGE_CURVE('',#125,#126,#98,.T.);
#161=EDGE_CURVE('',#127,#128,#99,.T.);
#162=EDGE_CURVE('',#128,#127,#100,.T.);
#163=EDGE_CURVE('',#128,#129,#69,.T.);
#164=EDGE_CURVE('',#130,#129,#101,.T.);
#165=EDGE_CURVE('',#129,#130,#102,.T.);
#166=EDGE_CURVE('',#131,#132,#103,.T.);
#167=EDGE_CURVE('',#132,#131,#104,.T.);
#168=EDGE_CURVE('',#132,#133,#70,.T.);
#169=EDGE_CURVE('',#134,#133,#105,.T.);
#170=EDGE_CURVE('',#133,#134,#106,.T.);
#171=ORIENTED_EDGE('',*,*,#135,.F.);
#172=ORIENTED_EDGE('',*,*,#136,.F.);
#173=ORIENTED_EDGE('',*,*,#137,.T.);
#174=ORIENTED_EDGE('',*,*,#138,.T.);
#175=ORIENTED_EDGE('',*,*,#139,.T.);
#176=ORIENTED_EDGE('',*,*,#137,.F.);
#177=ORIENTED_EDGE('',*,*,#140,.F.);
#178=ORIENTED_EDGE('',*,*,#141,.F.);
#179=ORIENTED_EDGE('',*,*,#142,.T.);
#180=ORIENTED_EDGE('',*,*,#136,.T.);
#181=ORIENTED_EDGE('',*,*,#135,.T.);
#182=ORIENTED_EDGE('',*,*,#142,.F.);
#183=ORIENTED_EDGE('',*,*,#143,.F.);
#184=ORIENTED_EDGE('',*,*,#144,.F.);
#185=ORIENTED_EDGE('',*,*,#140,.T.);
#186=ORIENTED_EDGE('',*,*,#141,.T.);
#187=ORIENTED_EDGE('',*,*,#145,.F.);
#188=ORIENTED_EDGE('',*,*,#146,.F.);
#189=ORIENTED_EDGE('',*,*,#147,.T.);
#190=ORIENTED_EDGE('',*,*,#144,.T.);
#191=ORIENTED_EDGE('',*,*,#143,.T.);
#192=ORIENTED_EDGE('',*,*,#147,.F.);
#193=ORIENTED_EDGE('',*,*,#148,.F.);
#194=ORIENTED_EDGE('',*,*,#149,.F.);
#195=ORIENTED_EDGE('',*,*,#145,.T.);
#196=ORIENTED_EDGE('',*,*,#146,.T.);
#197=ORIENTED_EDGE('',*,*,#150,.F.);
#198=ORIENTED_EDGE('',*,*,#151,.F.);
#199=ORIENTED_EDGE('',*,*,#152,.T.);
#200=ORIENTED_EDGE('',*,*,#149,.T.);
#201=ORIENTED_EDGE('',*,*,#148,.T.);
#202=ORIENTED_EDGE('',*,*,#152,.F.);
#203=ORIENTED_EDGE('',*,*,#153,.F.);
#204=ORIENTED_EDGE('',*,*,#154,.F.);
#205=ORIENTED_EDGE('',*,*,#155,.T.);
#206=ORIENTED_EDGE('',*,*,#151,.T.);
#207=ORIENTED_EDGE('',*,*,#150,.T.);
#208=ORIENTED_EDGE('',*,*,#155,.F.);
#209=ORIENTED_EDGE('',*,*,#153,.T.);
#210=ORIENTED_EDGE('',*,*,#154,.T.);
#211=ORIENTED_EDGE('',*,*,#156,.F.);
#212=ORIENTED_EDGE('',*,*,#157,.F.);
#213=ORIENTED_EDGE('',*,*,#156,.T.);
#214=ORIENTED_EDGE('',*,*,#158,.T.);
#215=ORIENTED_EDGE('',*,*,#159,.F.);
#216=ORIENTED_EDGE('',*,*,#160,.F.);
#217=ORIENTED_EDGE('',*,*,#158,.F.);
#218=ORIENTED_EDGE('',*,*,#157,.T.);
#219=ORIENTED_EDGE('',*,*,#159,.T.);
#220=ORIENTED_EDGE('',*,*,#160,.T.);
#221=ORIENTED_EDGE('',*,*,#161,.F.);
#222=ORIENTED_EDGE('',*,*,#162,.F.);
#223=ORIENTED_EDGE('',*,*,#161,.T.);
#224=ORIENTED_EDGE('',*,*,#163,.T.);
#225=ORIENTED_EDGE('',*,*,#164,.F.);
#226=ORIENTED_EDGE('',*,*,#165,.F.);
#227=ORIENTED_EDGE('',*,*,#163,.F.);
#228=ORIENTED_EDGE('',*,*,#162,.T.);
#229=ORIENTED_EDGE('',*,*,#166,.F.);
#230=ORIENTED_EDGE('',*,*,#167,.F.);
#231=ORIENTED_EDGE('',*,*,#164,.T.);
#232=ORIENTED_EDGE('',*,*,#165,.T.);
#233=ORIENTED_EDGE('',*,*,#166,.T.);
#234=ORIENTED_EDGE('',*,*,#168,.T.);
#235=ORIENTED_EDGE('',*,*,#169,.F.);
#236=ORIENTED_EDGE('',*,*,#170,.F.);
#237=ORIENTED_EDGE('',*,*,#168,.F.);
#238=ORIENTED_EDGE('',*,*,#167,.T.);
#239=ORIENTED_EDGE('',*,*,#139,.F.);
#240=ORIENTED_EDGE('',*,*,#138,.F.);
#241=ORIENTED_EDGE('',*,*,#169,.T.);
#242=ORIENTED_EDGE('',*,*,#170,.T.);
#243=CYLINDRICAL_SURFACE('',#283,20.);
#244=CYLINDRICAL_SURFACE('',#294,12.7);
#245=CYLINDRICAL_SURFACE('',#303,37.5);
#246=CYLINDRICAL_SURFACE('',#309,26.15);
#247=CYLINDRICAL_SURFACE('',#315,11.);
#248=CYLINDRICAL_SURFACE('',#321,13.1);
#249=ADVANCED_FACE('',(#29),#243,.T.);
#250=ADVANCED_FACE('',(#30),#27,.T.);
#251=ADVANCED_FACE('',(#31,#15),#21,.T.);
#252=ADVANCED_FACE('',(#32),#244,.T.);
#253=ADVANCED_FACE('',(#33,#16),#22,.T.);
#254=ADVANCED_FACE('',(#34),#28,.T.);
#255=ADVANCED_FACE('',(#35),#245,.T.);
#256=ADVANCED_FACE('',(#36,#17),#23,.T.);
#257=ADVANCED_FACE('',(#37),#246,.F.);
#258=ADVANCED_FACE('',(#38,#18),#24,.T.);
#259=ADVANCED_FACE('',(#39),#247,.F.);
#260=ADVANCED_FACE('',(#40,#19),#25,.T.);
#261=ADVANCED_FACE('',(#41),#248,.F.);
#262=ADVANCED_FACE('',(#42,#20),#26,.T.);
#263=CLOSED_SHELL('',(#249,#250,#251,#252,#253,#254,#255,#256,#257,#258,
#259,#260,#261,#262));
#264=DERIVED_UNIT_ELEMENT(#266,1.);
#265=DERIVED_UNIT_ELEMENT(#503,3.);
#266=(
MASS_UNIT()
NAMED_UNIT(*)
SI_UNIT($,.GRAM.)
);
#267=DERIVED_UNIT((#264,#265));
#268=MEASURE_REPRESENTATION_ITEM('density measure',
POSITIVE_RATIO_MEASURE(8.),#267);
#269=PROPERTY_DEFINITION_REPRESENTATION(#274,#271);
#270=PROPERTY_DEFINITION_REPRESENTATION(#275,#272);
#271=REPRESENTATION('material name',(#273),#500);
#272=REPRESENTATION('density',(#268),#500);
#273=DESCRIPTIVE_REPRESENTATION_ITEM('Stainless Steel AISI 304',
'Stainless Steel AISI 304');
#274=PROPERTY_DEFINITION('material property','material name',#510);
#275=PROPERTY_DEFINITION('material property','density of part',#510);
#276=DATE_TIME_ROLE('creation_date');
#277=APPLIED_DATE_AND_TIME_ASSIGNMENT(#278,#276,(#510));
#278=DATE_AND_TIME(#279,#280);
#279=CALENDAR_DATE(2014,20,11);
#280=LOCAL_TIME(11,0,44.,#281);
#281=COORDINATED_UNIVERSAL_TIME_OFFSET(0,0,.BEHIND.);
#282=AXIS2_PLACEMENT_3D('placement',#419,#325,#326);
#283=AXIS2_PLACEMENT_3D('',#420,#327,#328);
#284=AXIS2_PLACEMENT_3D('',#423,#329,#330);
#285=AXIS2_PLACEMENT_3D('',#424,#331,#332);
#286=AXIS2_PLACEMENT_3D('',#428,#334,#335);
#287=AXIS2_PLACEMENT_3D('',#429,#336,#337);
#288=AXIS2_PLACEMENT_3D('',#430,#338,#339);
#289=AXIS2_PLACEMENT_3D('',#433,#340,#341);
#290=AXIS2_PLACEMENT_3D('',#434,#342,#343);
#291=AXIS2_PLACEMENT_3D('',#436,#345,#346);
#292=AXIS2_PLACEMENT_3D('',#439,#347,#348);
#293=AXIS2_PLACEMENT_3D('',#440,#349,#350);
#294=AXIS2_PLACEMENT_3D('',#441,#351,#352);
#295=AXIS2_PLACEMENT_3D('',#444,#353,#354);
#296=AXIS2_PLACEMENT_3D('',#445,#355,#356);
#297=AXIS2_PLACEMENT_3D('',#447,#358,#359);
#298=AXIS2_PLACEMENT_3D('',#450,#360,#361);
#299=AXIS2_PLACEMENT_3D('',#451,#362,#363);
#300=AXIS2_PLACEMENT_3D('',#452,#364,#365);
#301=AXIS2_PLACEMENT_3D('',#455,#366,#367);
#302=AXIS2_PLACEMENT_3D('',#456,#368,#369);
#303=AXIS2_PLACEMENT_3D('',#458,#371,#372);
#304=AXIS2_PLACEMENT_3D('',#461,#373,#374);
#305=AXIS2_PLACEMENT_3D('',#462,#375,#376);
#306=AXIS2_PLACEMENT_3D('',#464,#378,#379);
#307=AXIS2_PLACEMENT_3D('',#467,#380,#381);
#308=AXIS2_PLACEMENT_3D('',#468,#382,#383);
#309=AXIS2_PLACEMENT_3D('',#469,#384,#385);
#310=AXIS2_PLACEMENT_3D('',#473,#387,#388);
#311=AXIS2_PLACEMENT_3D('',#474,#389,#390);
#312=AXIS2_PLACEMENT_3D('',#475,#391,#392);
#313=AXIS2_PLACEMENT_3D('',#478,#393,#394);
#314=AXIS2_PLACEMENT_3D('',#479,#395,#396);
#315=AXIS2_PLACEMENT_3D('',#480,#397,#398);
#316=AXIS2_PLACEMENT_3D('',#484,#400,#401);
#317=AXIS2_PLACEMENT_3D('',#485,#402,#403);
#318=AXIS2_PLACEMENT_3D('',#486,#404,#405);
#319=AXIS2_PLACEMENT_3D('',#489,#406,#407);
#320=AXIS2_PLACEMENT_3D('',#490,#408,#409);
#321=AXIS2_PLACEMENT_3D('',#491,#410,#411);
#322=AXIS2_PLACEMENT_3D('',#495,#413,#414);
#323=AXIS2_PLACEMENT_3D('',#496,#415,#416);
#324=AXIS2_PLACEMENT_3D('',#497,#417,#418);
#325=DIRECTION('axis',(0.,0.,1.));
#326=DIRECTION('refdir',(1.,0.,0.));
#327=DIRECTION('center_axis',(0.,1.,0.));
#328=DIRECTION('ref_axis',(-1.,0.,0.));
#329=DIRECTION('center_axis',(0.,1.,0.));
#330=DIRECTION('ref_axis',(1.,0.,0.));
#331=DIRECTION('center_axis',(0.,1.,0.));
#332=DIRECTION('ref_axis',(1.,0.,0.));
#333=DIRECTION('',(0.,-1.,0.));
#334=DIRECTION('center_axis',(0.,1.,0.));
#335=DIRECTION('ref_axis',(1.,0.,0.));
#336=DIRECTION('center_axis',(0.,1.,0.));
#337=DIRECTION('ref_axis',(1.,0.,0.));
#338=DIRECTION('center_axis',(0.,-1.,0.));
#339=DIRECTION('ref_axis',(-1.,0.,0.));
#340=DIRECTION('center_axis',(0.,1.,0.));
#341=DIRECTION('ref_axis',(1.,0.,0.));
#342=DIRECTION('center_axis',(0.,1.,0.));
#343=DIRECTION('ref_axis',(1.,0.,0.));
#344=DIRECTION('',(0.965925826289068,-0.258819045102521,-1.18291797137867E-16));
#345=DIRECTION('center_axis',(0.,-1.,0.));
#346=DIRECTION('ref_axis',(0.,0.,-1.));
#347=DIRECTION('center_axis',(0.,1.,0.));
#348=DIRECTION('ref_axis',(1.,0.,0.));
#349=DIRECTION('center_axis',(0.,1.,0.));
#350=DIRECTION('ref_axis',(1.,0.,0.));
#351=DIRECTION('center_axis',(0.,1.,0.));
#352=DIRECTION('ref_axis',(-1.,0.,0.));
#353=DIRECTION('center_axis',(0.,1.,0.));
#354=DIRECTION('ref_axis',(1.,0.,0.));
#355=DIRECTION('center_axis',(0.,1.,0.));
#356=DIRECTION('ref_axis',(1.,0.,0.));
#357=DIRECTION('',(0.,-1.,0.));
#358=DIRECTION('center_axis',(0.,-1.,0.));
#359=DIRECTION('ref_axis',(0.,0.,-1.));
#360=DIRECTION('center_axis',(0.,1.,0.));
#361=DIRECTION('ref_axis',(1.,0.,0.));
#362=DIRECTION('center_axis',(0.,1.,0.));
#363=DIRECTION('ref_axis',(1.,0.,0.));
#364=DIRECTION('center_axis',(0.,1.,0.));
#365=DIRECTION('ref_axis',(-1.,0.,0.));
#366=DIRECTION('center_axis',(0.,1.,0.));
#367=DIRECTION('ref_axis',(1.,0.,0.));
#368=DIRECTION('center_axis',(0.,1.,0.));
#369=DIRECTION('ref_axis',(1.,0.,0.));
#370=DIRECTION('',(-0.965925826289068,-0.258819045102522,1.18291797137867E-16));
#371=DIRECTION('center_axis',(0.,1.,0.));
#372=DIRECTION('ref_axis',(-1.,0.,0.));
#373=DIRECTION('center_axis',(0.,1.,0.));
#374=DIRECTION('ref_axis',(1.,0.,0.));
#375=DIRECTION('center_axis',(0.,1.,0.));
#376=DIRECTION('ref_axis',(1.,0.,0.));
#377=DIRECTION('',(0.,-1.,0.));
#378=DIRECTION('center_axis',(0.,1.,0.));
#379=DIRECTION('ref_axis',(0.,0.,1.));
#380=DIRECTION('center_axis',(0.,1.,0.));
#381=DIRECTION('ref_axis',(1.,0.,0.));
#382=DIRECTION('center_axis',(0.,1.,0.));
#383=DIRECTION('ref_axis',(1.,0.,0.));
#384=DIRECTION('center_axis',(0.,1.,0.));
#385=DIRECTION('ref_axis',(-1.,0.,0.));
#386=DIRECTION('',(0.,-1.,0.));
#387=DIRECTION('center_axis',(0.,1.,0.));
#388=DIRECTION('ref_axis',(1.,0.,0.));
#389=DIRECTION('center_axis',(0.,1.,0.));
#390=DIRECTION('ref_axis',(1.,0.,0.));
#391=DIRECTION('center_axis',(0.,1.,0.));
#392=DIRECTION('ref_axis',(0.,0.,1.));
#393=DIRECTION('center_axis',(0.,1.,0.));
#394=DIRECTION('ref_axis',(1.,0.,0.));
#395=DIRECTION('center_axis',(0.,1.,0.));
#396=DIRECTION('ref_axis',(1.,0.,0.));
#397=DIRECTION('center_axis',(0.,1.,0.));
#398=DIRECTION('ref_axis',(-1.,0.,0.));
#399=DIRECTION('',(0.,-1.,0.));
#400=DIRECTION('center_axis',(0.,1.,0.));
#401=DIRECTION('ref_axis',(1.,0.,0.));
#402=DIRECTION('center_axis',(0.,1.,0.));
#403=DIRECTION('ref_axis',(1.,0.,0.));
#404=DIRECTION('center_axis',(0.,-1.,0.));
#405=DIRECTION('ref_axis',(0.,0.,-1.));
#406=DIRECTION('center_axis',(0.,1.,0.));
#407=DIRECTION('ref_axis',(1.,0.,0.));
#408=DIRECTION('center_axis',(0.,1.,0.));
#409=DIRECTION('ref_axis',(1.,0.,0.));
#410=DIRECTION('center_axis',(0.,1.,0.));
#411=DIRECTION('ref_axis',(-1.,0.,0.));
#412=DIRECTION('',(0.,-1.,0.));
#413=DIRECTION('center_axis',(0.,1.,0.));
#414=DIRECTION('ref_axis',(1.,0.,0.));
#415=DIRECTION('center_axis',(0.,1.,0.));
#416=DIRECTION('ref_axis',(1.,0.,0.));
#417=DIRECTION('center_axis',(0.,-1.,0.));
#418=DIRECTION('ref_axis',(0.,0.,-1.));
#419=CARTESIAN_POINT('',(0.,0.,0.));
#420=CARTESIAN_POINT('Origin',(0.,1.5,0.));
#421=CARTESIAN_POINT('',(-20.,3.,0.));
#422=CARTESIAN_POINT('',(20.,3.,-2.44929359829471E-15));
#423=CARTESIAN_POINT('Origin',(0.,3.,0.));
#424=CARTESIAN_POINT('Origin',(0.,3.,0.));
#425=CARTESIAN_POINT('',(20.,-1.66533453693773E-15,-2.44929359829471E-15));
#426=CARTESIAN_POINT('',(20.,1.5,-2.44929359829471E-15));
#427=CARTESIAN_POINT('',(-20.,-1.66533453693773E-15,0.));
#428=CARTESIAN_POINT('Origin',(0.,-1.66533453693773E-15,0.));
#429=CARTESIAN_POINT('Origin',(0.,-1.66533453693773E-15,0.));
#430=CARTESIAN_POINT('Origin',(0.,4.,0.));
#431=CARTESIAN_POINT('',(-12.5358983848622,5.,0.));
#432=CARTESIAN_POINT('',(12.5358983848622,5.,-1.5352047831458E-15));
#433=CARTESIAN_POINT('Origin',(0.,5.,0.));
#434=CARTESIAN_POINT('Origin',(0.,5.,0.));
#435=CARTESIAN_POINT('',(16.2679491924311,4.,-1.99224919072025E-15));
#436=CARTESIAN_POINT('Origin',(-12.7,5.,0.));
#437=CARTESIAN_POINT('',(-12.7,5.,0.));
#438=CARTESIAN_POINT('',(12.7,5.,-1.55530143491714E-15));
#439=CARTESIAN_POINT('Origin',(0.,5.,0.));
#440=CARTESIAN_POINT('Origin',(0.,5.,0.));
#441=CARTESIAN_POINT('Origin',(0.,14.,0.));
#442=CARTESIAN_POINT('',(-12.7,23.,0.));
#443=CARTESIAN_POINT('',(12.7,23.,-1.55530143491714E-15));
#444=CARTESIAN_POINT('Origin',(0.,23.,0.));
#445=CARTESIAN_POINT('Origin',(0.,23.,0.));
#446=CARTESIAN_POINT('',(12.7,14.,-1.55530143491714E-15));
#447=CARTESIAN_POINT('Origin',(-30.0358983848623,23.,0.));
#448=CARTESIAN_POINT('',(-30.0358983848623,23.,0.));
#449=CARTESIAN_POINT('',(30.0358983848623,23.,-3.67833668165367E-15));
#450=CARTESIAN_POINT('Origin',(0.,23.,0.));
#451=CARTESIAN_POINT('Origin',(0.,23.,0.));
#452=CARTESIAN_POINT('Origin',(0.,24.,0.));
#453=CARTESIAN_POINT('',(-37.5,25.,0.));
#454=CARTESIAN_POINT('',(37.5,25.,-4.59242549680258E-15));
#455=CARTESIAN_POINT('Origin',(0.,25.,0.));
#456=CARTESIAN_POINT('Origin',(0.,25.,0.));
#457=CARTESIAN_POINT('',(33.7679491924311,24.,-4.13538108922812E-15));
#458=CARTESIAN_POINT('Origin',(0.,26.5,0.));
#459=CARTESIAN_POINT('',(-37.5,28.,0.));
#460=CARTESIAN_POINT('',(37.5,28.,-4.59242549680258E-15));
#461=CARTESIAN_POINT('Origin',(0.,28.,0.));
#462=CARTESIAN_POINT('Origin',(0.,28.,0.));
#463=CARTESIAN_POINT('',(37.5,26.5,-4.59242549680258E-15));
#464=CARTESIAN_POINT('Origin',(-26.15,28.,0.));
#465=CARTESIAN_POINT('',(-26.15,28.,0.));
#466=CARTESIAN_POINT('',(26.15,28.,-3.20245137977033E-15));
#467=CARTESIAN_POINT('Origin',(0.,28.,0.));
#468=CARTESIAN_POINT('Origin',(0.,28.,0.));
#469=CARTESIAN_POINT('Origin',(0.,26.75,0.));
#470=CARTESIAN_POINT('',(26.15,25.5,-3.20245137977033E-15));
#471=CARTESIAN_POINT('',(26.15,26.75,-3.20245137977033E-15));
#472=CARTESIAN_POINT('',(-26.15,25.5,0.));
#473=CARTESIAN_POINT('Origin',(0.,25.5,0.));
#474=CARTESIAN_POINT('Origin',(0.,25.5,0.));
#475=CARTESIAN_POINT('Origin',(-11.,25.5,0.));
#476=CARTESIAN_POINT('',(-11.,25.5,0.));
#477=CARTESIAN_POINT('',(11.,25.5,-1.34711147906209E-15));
#478=CARTESIAN_POINT('Origin',(0.,25.5,0.));
#479=CARTESIAN_POINT('Origin',(0.,25.5,0.));
#480=CARTESIAN_POINT('Origin',(0.,14.,0.));
#481=CARTESIAN_POINT('',(11.,2.5,-1.34711147906209E-15));
#482=CARTESIAN_POINT('',(11.,14.,-1.34711147906209E-15));
#483=CARTESIAN_POINT('',(-11.,2.5,0.));
#484=CARTESIAN_POINT('Origin',(0.,2.5,0.));
#485=CARTESIAN_POINT('Origin',(0.,2.5,0.));
#486=CARTESIAN_POINT('Origin',(-13.1,2.5,0.));
#487=CARTESIAN_POINT('',(-13.1,2.5,0.));
#488=CARTESIAN_POINT('',(13.1,2.5,-1.60428730688303E-15));
#489=CARTESIAN_POINT('Origin',(0.,2.5,0.));
#490=CARTESIAN_POINT('Origin',(0.,2.5,0.));
#491=CARTESIAN_POINT('Origin',(0.,1.25,0.));
#492=CARTESIAN_POINT('',(13.1,-5.55111512312578E-16,-1.60428730688303E-15));
#493=CARTESIAN_POINT('',(13.1,1.25,-1.60428730688303E-15));
#494=CARTESIAN_POINT('',(-13.1,-5.55111512312578E-16,0.));
#495=CARTESIAN_POINT('Origin',(0.,-5.55111512312578E-16,0.));
#496=CARTESIAN_POINT('Origin',(0.,-5.55111512312578E-16,0.));
#497=CARTESIAN_POINT('Origin',(-20.,-1.66533453693773E-15,0.));
#498=UNCERTAINTY_MEASURE_WITH_UNIT(LENGTH_MEASURE(0.01),#502,
'DISTANCE_ACCURACY_VALUE',
'Maximum model space distance between geometric entities at asserted c
onnectivities');
#499=UNCERTAINTY_MEASURE_WITH_UNIT(LENGTH_MEASURE(0.01),#502,
'DISTANCE_ACCURACY_VALUE',
'Maximum model space distance between geometric entities at asserted c
onnectivities');
#500=(
GEOMETRIC_REPRESENTATION_CONTEXT(3)
GLOBAL_UNCERTAINTY_ASSIGNED_CONTEXT((#498))
GLOBAL_UNIT_ASSIGNED_CONTEXT((#502,#504,#505))
REPRESENTATION_CONTEXT('','3D')
);
#501=(
GEOMETRIC_REPRESENTATION_CONTEXT(3)
GLOBAL_UNCERTAINTY_ASSIGNED_CONTEXT((#499))
GLOBAL_UNIT_ASSIGNED_CONTEXT((#502,#504,#505))
REPRESENTATION_CONTEXT('','3D')
);
#502=(
LENGTH_UNIT()
NAMED_UNIT(*)
SI_UNIT(.MILLI.,.METRE.)
);
#503=(
LENGTH_UNIT()
NAMED_UNIT(*)
SI_UNIT(.CENTI.,.METRE.)
);
#504=(
NAMED_UNIT(*)
PLANE_ANGLE_UNIT()
SI_UNIT($,.RADIAN.)
);
#505=(
NAMED_UNIT(*)
SI_UNIT($,.STERADIAN.)
SOLID_ANGLE_UNIT()
);
#506=SHAPE_DEFINITION_REPRESENTATION(#507,#508);
#507=PRODUCT_DEFINITION_SHAPE('',$,#510);
#508=SHAPE_REPRESENTATION('',(#282),#500);
#509=PRODUCT_DEFINITION_CONTEXT('part definition',#514,'design');
#510=PRODUCT_DEFINITION('FL-SR50-25KF','FL-SR50-25KF',#511,#509);
#511=PRODUCT_DEFINITION_FORMATION('',$,#516);
#512=PRODUCT_RELATED_PRODUCT_CATEGORY('FL-SR50-25KF','FL-SR50-25KF',(#516));
#513=APPLICATION_PROTOCOL_DEFINITION('international standard',
'automotive_design',2009,#514);
#514=APPLICATION_CONTEXT(
'Core Data for Automotive Mechanical Design Process');
#515=PRODUCT_CONTEXT('part definition',#514,'mechanical');
#516=PRODUCT('FL-SR50-25KF','FL-SR50-25KF',$,(#515));
#517=PRESENTATION_STYLE_ASSIGNMENT((#518));
#518=SURFACE_STYLE_USAGE(.BOTH.,#521);
#519=SURFACE_STYLE_RENDERING_WITH_PROPERTIES($,#525,(#520));
#520=SURFACE_STYLE_TRANSPARENT(1.);
#521=SURFACE_SIDE_STYLE('',(#522,#519));
#522=SURFACE_STYLE_FILL_AREA(#523);
#523=FILL_AREA_STYLE('',(#524));
#524=FILL_AREA_STYLE_COLOUR('',#525);
#525=COLOUR_RGB('',0.745098039215686,0.737254901960784,0.729411764705882);
ENDSEC;
END-ISO-10303-21;
