ISO-10303-21;
HEADER;
/* Generated by software containing ST-Developer
 * from STEP Tools, Inc. (www.steptools.com) 
 */

FILE_DESCRIPTION(
/* description */ (''),
/* implementation_level */ '2;1');

FILE_NAME(
/* name */ 
'G:\\FLANGES & FITTINGS\\Straight Reducers\\Step files\\FL-SR40-16KF.s
tp',
/* time_stamp */ '2018-11-09T12:41:16+00:00',
/* author */ ('paul'),
/* organization */ (''),
/* preprocessor_version */ 'ST-DEVELOPER v17.2',
/* originating_system */ 'Autodesk Inventor 2019',
/* authorisation */ '');

FILE_SCHEMA (('AUTOMOTIVE_DESIGN { 1 0 10303 214 3 1 1 }'));
ENDSEC;

DATA;
#10=MECHANICAL_DESIGN_GEOMETRIC_PRESENTATION_REPRESENTATION('',(#13),#471);
#11=SHAPE_REPRESENTATION_RELATIONSHIP('SRR','None',#478,#12);
#12=ADVANCED_BREP_SHAPE_REPRESENTATION('',(#14),#470);
#13=STYLED_ITEM('',(#487),#14);
#14=MANIFOLD_SOLID_BREP('Solid1',#247);
#15=FACE_BOUND('',#44,.T.);
#16=FACE_BOUND('',#48,.T.);
#17=FACE_BOUND('',#51,.T.);
#18=FACE_BOUND('',#54,.T.);
#19=FACE_BOUND('',#57,.T.);
#20=PLANE('',#278);
#21=PLANE('',#287);
#22=PLANE('',#293);
#23=PLANE('',#299);
#24=PLANE('',#305);
#25=CONICAL_SURFACE('',#272,12.275,1.30899693899575);
#26=CONICAL_SURFACE('',#281,23.7679491924311,1.30899693899575);
#27=FACE_OUTER_BOUND('',#40,.T.);
#28=FACE_OUTER_BOUND('',#41,.T.);
#29=FACE_OUTER_BOUND('',#42,.T.);
#30=FACE_OUTER_BOUND('',#43,.T.);
#31=FACE_OUTER_BOUND('',#45,.T.);
#32=FACE_OUTER_BOUND('',#46,.T.);
#33=FACE_OUTER_BOUND('',#47,.T.);
#34=FACE_OUTER_BOUND('',#49,.T.);
#35=FACE_OUTER_BOUND('',#50,.T.);
#36=FACE_OUTER_BOUND('',#52,.T.);
#37=FACE_OUTER_BOUND('',#53,.T.);
#38=FACE_OUTER_BOUND('',#55,.T.);
#39=FACE_OUTER_BOUND('',#56,.T.);
#40=EDGE_LOOP('',(#160,#161,#162,#163,#164,#165));
#41=EDGE_LOOP('',(#166,#167,#168,#169,#170,#171));
#42=EDGE_LOOP('',(#172,#173,#174,#175,#176,#177));
#43=EDGE_LOOP('',(#178,#179));
#44=EDGE_LOOP('',(#180,#181));
#45=EDGE_LOOP('',(#182,#183,#184,#185,#186,#187));
#46=EDGE_LOOP('',(#188,#189,#190,#191,#192,#193));
#47=EDGE_LOOP('',(#194,#195));
#48=EDGE_LOOP('',(#196,#197));
#49=EDGE_LOOP('',(#198,#199,#200,#201,#202,#203));
#50=EDGE_LOOP('',(#204,#205));
#51=EDGE_LOOP('',(#206,#207));
#52=EDGE_LOOP('',(#208,#209,#210,#211,#212,#213));
#53=EDGE_LOOP('',(#214,#215));
#54=EDGE_LOOP('',(#216,#217));
#55=EDGE_LOOP('',(#218,#219,#220,#221,#222,#223));
#56=EDGE_LOOP('',(#224,#225));
#57=EDGE_LOOP('',(#226,#227));
#58=LINE('',#401,#66);
#59=LINE('',#410,#67);
#60=LINE('',#416,#68);
#61=LINE('',#427,#69);
#62=LINE('',#433,#70);
#63=LINE('',#441,#71);
#64=LINE('',#452,#72);
#65=LINE('',#463,#73);
#66=VECTOR('',#314,15.);
#67=VECTOR('',#325,12.275);
#68=VECTOR('',#332,9.55);
#69=VECTOR('',#345,23.7679491924311);
#70=VECTOR('',#352,27.5);
#71=VECTOR('',#361,20.6);
#72=VECTOR('',#374,8.51);
#73=VECTOR('',#387,8.6);
#74=CIRCLE('',#268,15.);
#75=CIRCLE('',#269,15.);
#76=CIRCLE('',#270,15.);
#77=CIRCLE('',#271,15.);
#78=CIRCLE('',#273,9.54999999999999);
#79=CIRCLE('',#274,9.54999999999999);
#80=CIRCLE('',#276,9.55);
#81=CIRCLE('',#277,9.55);
#82=CIRCLE('',#279,20.0358983848623);
#83=CIRCLE('',#280,20.0358983848623);
#84=CIRCLE('',#282,27.5);
#85=CIRCLE('',#283,27.5);
#86=CIRCLE('',#285,27.5);
#87=CIRCLE('',#286,27.5);
#88=CIRCLE('',#288,20.6);
#89=CIRCLE('',#289,20.6);
#90=CIRCLE('',#291,20.6);
#91=CIRCLE('',#292,20.6);
#92=CIRCLE('',#294,8.51);
#93=CIRCLE('',#295,8.51);
#94=CIRCLE('',#297,8.51);
#95=CIRCLE('',#298,8.51);
#96=CIRCLE('',#300,8.6);
#97=CIRCLE('',#301,8.6);
#98=CIRCLE('',#303,8.6);
#99=CIRCLE('',#304,8.6);
#100=VERTEX_POINT('',#396);
#101=VERTEX_POINT('',#397);
#102=VERTEX_POINT('',#400);
#103=VERTEX_POINT('',#402);
#104=VERTEX_POINT('',#406);
#105=VERTEX_POINT('',#407);
#106=VERTEX_POINT('',#412);
#107=VERTEX_POINT('',#413);
#108=VERTEX_POINT('',#418);
#109=VERTEX_POINT('',#419);
#110=VERTEX_POINT('',#423);
#111=VERTEX_POINT('',#424);
#112=VERTEX_POINT('',#429);
#113=VERTEX_POINT('',#430);
#114=VERTEX_POINT('',#435);
#115=VERTEX_POINT('',#436);
#116=VERTEX_POINT('',#440);
#117=VERTEX_POINT('',#442);
#118=VERTEX_POINT('',#446);
#119=VERTEX_POINT('',#447);
#120=VERTEX_POINT('',#451);
#121=VERTEX_POINT('',#453);
#122=VERTEX_POINT('',#457);
#123=VERTEX_POINT('',#458);
#124=VERTEX_POINT('',#462);
#125=VERTEX_POINT('',#464);
#126=EDGE_CURVE('',#100,#101,#74,.T.);
#127=EDGE_CURVE('',#101,#100,#75,.T.);
#128=EDGE_CURVE('',#101,#102,#58,.T.);
#129=EDGE_CURVE('',#102,#103,#76,.T.);
#130=EDGE_CURVE('',#103,#102,#77,.T.);
#131=EDGE_CURVE('',#104,#105,#78,.T.);
#132=EDGE_CURVE('',#105,#104,#79,.T.);
#133=EDGE_CURVE('',#105,#101,#59,.T.);
#134=EDGE_CURVE('',#106,#107,#80,.T.);
#135=EDGE_CURVE('',#107,#106,#81,.T.);
#136=EDGE_CURVE('',#107,#105,#60,.T.);
#137=EDGE_CURVE('',#108,#109,#82,.T.);
#138=EDGE_CURVE('',#109,#108,#83,.T.);
#139=EDGE_CURVE('',#110,#111,#84,.T.);
#140=EDGE_CURVE('',#111,#110,#85,.T.);
#141=EDGE_CURVE('',#111,#109,#61,.T.);
#142=EDGE_CURVE('',#112,#113,#86,.T.);
#143=EDGE_CURVE('',#113,#112,#87,.T.);
#144=EDGE_CURVE('',#113,#111,#62,.T.);
#145=EDGE_CURVE('',#114,#115,#88,.T.);
#146=EDGE_CURVE('',#115,#114,#89,.T.);
#147=EDGE_CURVE('',#115,#116,#63,.T.);
#148=EDGE_CURVE('',#117,#116,#90,.T.);
#149=EDGE_CURVE('',#116,#117,#91,.T.);
#150=EDGE_CURVE('',#118,#119,#92,.T.);
#151=EDGE_CURVE('',#119,#118,#93,.T.);
#152=EDGE_CURVE('',#119,#120,#64,.T.);
#153=EDGE_CURVE('',#121,#120,#94,.T.);
#154=EDGE_CURVE('',#120,#121,#95,.T.);
#155=EDGE_CURVE('',#122,#123,#96,.T.);
#156=EDGE_CURVE('',#123,#122,#97,.T.);
#157=EDGE_CURVE('',#123,#124,#65,.T.);
#158=EDGE_CURVE('',#125,#124,#98,.T.);
#159=EDGE_CURVE('',#124,#125,#99,.T.);
#160=ORIENTED_EDGE('',*,*,#126,.F.);
#161=ORIENTED_EDGE('',*,*,#127,.F.);
#162=ORIENTED_EDGE('',*,*,#128,.T.);
#163=ORIENTED_EDGE('',*,*,#129,.T.);
#164=ORIENTED_EDGE('',*,*,#130,.T.);
#165=ORIENTED_EDGE('',*,*,#128,.F.);
#166=ORIENTED_EDGE('',*,*,#131,.F.);
#167=ORIENTED_EDGE('',*,*,#132,.F.);
#168=ORIENTED_EDGE('',*,*,#133,.T.);
#169=ORIENTED_EDGE('',*,*,#127,.T.);
#170=ORIENTED_EDGE('',*,*,#126,.T.);
#171=ORIENTED_EDGE('',*,*,#133,.F.);
#172=ORIENTED_EDGE('',*,*,#134,.F.);
#173=ORIENTED_EDGE('',*,*,#135,.F.);
#174=ORIENTED_EDGE('',*,*,#136,.T.);
#175=ORIENTED_EDGE('',*,*,#132,.T.);
#176=ORIENTED_EDGE('',*,*,#131,.T.);
#177=ORIENTED_EDGE('',*,*,#136,.F.);
#178=ORIENTED_EDGE('',*,*,#137,.F.);
#179=ORIENTED_EDGE('',*,*,#138,.F.);
#180=ORIENTED_EDGE('',*,*,#134,.T.);
#181=ORIENTED_EDGE('',*,*,#135,.T.);
#182=ORIENTED_EDGE('',*,*,#139,.F.);
#183=ORIENTED_EDGE('',*,*,#140,.F.);
#184=ORIENTED_EDGE('',*,*,#141,.T.);
#185=ORIENTED_EDGE('',*,*,#138,.T.);
#186=ORIENTED_EDGE('',*,*,#137,.T.);
#187=ORIENTED_EDGE('',*,*,#141,.F.);
#188=ORIENTED_EDGE('',*,*,#142,.F.);
#189=ORIENTED_EDGE('',*,*,#143,.F.);
#190=ORIENTED_EDGE('',*,*,#144,.T.);
#191=ORIENTED_EDGE('',*,*,#140,.T.);
#192=ORIENTED_EDGE('',*,*,#139,.T.);
#193=ORIENTED_EDGE('',*,*,#144,.F.);
#194=ORIENTED_EDGE('',*,*,#142,.T.);
#195=ORIENTED_EDGE('',*,*,#143,.T.);
#196=ORIENTED_EDGE('',*,*,#145,.F.);
#197=ORIENTED_EDGE('',*,*,#146,.F.);
#198=ORIENTED_EDGE('',*,*,#145,.T.);
#199=ORIENTED_EDGE('',*,*,#147,.T.);
#200=ORIENTED_EDGE('',*,*,#148,.F.);
#201=ORIENTED_EDGE('',*,*,#149,.F.);
#202=ORIENTED_EDGE('',*,*,#147,.F.);
#203=ORIENTED_EDGE('',*,*,#146,.T.);
#204=ORIENTED_EDGE('',*,*,#148,.T.);
#205=ORIENTED_EDGE('',*,*,#149,.T.);
#206=ORIENTED_EDGE('',*,*,#150,.F.);
#207=ORIENTED_EDGE('',*,*,#151,.F.);
#208=ORIENTED_EDGE('',*,*,#150,.T.);
#209=ORIENTED_EDGE('',*,*,#152,.T.);
#210=ORIENTED_EDGE('',*,*,#153,.F.);
#211=ORIENTED_EDGE('',*,*,#154,.F.);
#212=ORIENTED_EDGE('',*,*,#152,.F.);
#213=ORIENTED_EDGE('',*,*,#151,.T.);
#214=ORIENTED_EDGE('',*,*,#155,.F.);
#215=ORIENTED_EDGE('',*,*,#156,.F.);
#216=ORIENTED_EDGE('',*,*,#153,.T.);
#217=ORIENTED_EDGE('',*,*,#154,.T.);
#218=ORIENTED_EDGE('',*,*,#155,.T.);
#219=ORIENTED_EDGE('',*,*,#157,.T.);
#220=ORIENTED_EDGE('',*,*,#158,.F.);
#221=ORIENTED_EDGE('',*,*,#159,.F.);
#222=ORIENTED_EDGE('',*,*,#157,.F.);
#223=ORIENTED_EDGE('',*,*,#156,.T.);
#224=ORIENTED_EDGE('',*,*,#130,.F.);
#225=ORIENTED_EDGE('',*,*,#129,.F.);
#226=ORIENTED_EDGE('',*,*,#158,.T.);
#227=ORIENTED_EDGE('',*,*,#159,.T.);
#228=CYLINDRICAL_SURFACE('',#267,15.);
#229=CYLINDRICAL_SURFACE('',#275,9.55);
#230=CYLINDRICAL_SURFACE('',#284,27.5);
#231=CYLINDRICAL_SURFACE('',#290,20.6);
#232=CYLINDRICAL_SURFACE('',#296,8.51);
#233=CYLINDRICAL_SURFACE('',#302,8.6);
#234=ADVANCED_FACE('',(#27),#228,.T.);
#235=ADVANCED_FACE('',(#28),#25,.T.);
#236=ADVANCED_FACE('',(#29),#229,.T.);
#237=ADVANCED_FACE('',(#30,#15),#20,.T.);
#238=ADVANCED_FACE('',(#31),#26,.T.);
#239=ADVANCED_FACE('',(#32),#230,.T.);
#240=ADVANCED_FACE('',(#33,#16),#21,.T.);
#241=ADVANCED_FACE('',(#34),#231,.F.);
#242=ADVANCED_FACE('',(#35,#17),#22,.T.);
#243=ADVANCED_FACE('',(#36),#232,.F.);
#244=ADVANCED_FACE('',(#37,#18),#23,.T.);
#245=ADVANCED_FACE('',(#38),#233,.F.);
#246=ADVANCED_FACE('',(#39,#19),#24,.T.);
#247=CLOSED_SHELL('',(#234,#235,#236,#237,#238,#239,#240,#241,#242,#243,
#244,#245,#246));
#248=DERIVED_UNIT_ELEMENT(#250,1.);
#249=DERIVED_UNIT_ELEMENT(#473,3.);
#250=(
MASS_UNIT()
NAMED_UNIT(*)
SI_UNIT($,.GRAM.)
);
#251=DERIVED_UNIT((#248,#249));
#252=MEASURE_REPRESENTATION_ITEM('density measure',
POSITIVE_RATIO_MEASURE(8.),#251);
#253=PROPERTY_DEFINITION_REPRESENTATION(#258,#255);
#254=PROPERTY_DEFINITION_REPRESENTATION(#259,#256);
#255=REPRESENTATION('material name',(#257),#470);
#256=REPRESENTATION('density',(#252),#470);
#257=DESCRIPTIVE_REPRESENTATION_ITEM('Stainless Steel AISI 304',
'Stainless Steel AISI 304');
#258=PROPERTY_DEFINITION('material property','material name',#480);
#259=PROPERTY_DEFINITION('material property','density of part',#480);
#260=DATE_TIME_ROLE('creation_date');
#261=APPLIED_DATE_AND_TIME_ASSIGNMENT(#262,#260,(#480));
#262=DATE_AND_TIME(#263,#264);
#263=CALENDAR_DATE(2014,20,11);
#264=LOCAL_TIME(11,0,44.,#265);
#265=COORDINATED_UNIVERSAL_TIME_OFFSET(0,0,.BEHIND.);
#266=AXIS2_PLACEMENT_3D('placement',#394,#306,#307);
#267=AXIS2_PLACEMENT_3D('',#395,#308,#309);
#268=AXIS2_PLACEMENT_3D('',#398,#310,#311);
#269=AXIS2_PLACEMENT_3D('',#399,#312,#313);
#270=AXIS2_PLACEMENT_3D('',#403,#315,#316);
#271=AXIS2_PLACEMENT_3D('',#404,#317,#318);
#272=AXIS2_PLACEMENT_3D('',#405,#319,#320);
#273=AXIS2_PLACEMENT_3D('',#408,#321,#322);
#274=AXIS2_PLACEMENT_3D('',#409,#323,#324);
#275=AXIS2_PLACEMENT_3D('',#411,#326,#327);
#276=AXIS2_PLACEMENT_3D('',#414,#328,#329);
#277=AXIS2_PLACEMENT_3D('',#415,#330,#331);
#278=AXIS2_PLACEMENT_3D('',#417,#333,#334);
#279=AXIS2_PLACEMENT_3D('',#420,#335,#336);
#280=AXIS2_PLACEMENT_3D('',#421,#337,#338);
#281=AXIS2_PLACEMENT_3D('',#422,#339,#340);
#282=AXIS2_PLACEMENT_3D('',#425,#341,#342);
#283=AXIS2_PLACEMENT_3D('',#426,#343,#344);
#284=AXIS2_PLACEMENT_3D('',#428,#346,#347);
#285=AXIS2_PLACEMENT_3D('',#431,#348,#349);
#286=AXIS2_PLACEMENT_3D('',#432,#350,#351);
#287=AXIS2_PLACEMENT_3D('',#434,#353,#354);
#288=AXIS2_PLACEMENT_3D('',#437,#355,#356);
#289=AXIS2_PLACEMENT_3D('',#438,#357,#358);
#290=AXIS2_PLACEMENT_3D('',#439,#359,#360);
#291=AXIS2_PLACEMENT_3D('',#443,#362,#363);
#292=AXIS2_PLACEMENT_3D('',#444,#364,#365);
#293=AXIS2_PLACEMENT_3D('',#445,#366,#367);
#294=AXIS2_PLACEMENT_3D('',#448,#368,#369);
#295=AXIS2_PLACEMENT_3D('',#449,#370,#371);
#296=AXIS2_PLACEMENT_3D('',#450,#372,#373);
#297=AXIS2_PLACEMENT_3D('',#454,#375,#376);
#298=AXIS2_PLACEMENT_3D('',#455,#377,#378);
#299=AXIS2_PLACEMENT_3D('',#456,#379,#380);
#300=AXIS2_PLACEMENT_3D('',#459,#381,#382);
#301=AXIS2_PLACEMENT_3D('',#460,#383,#384);
#302=AXIS2_PLACEMENT_3D('',#461,#385,#386);
#303=AXIS2_PLACEMENT_3D('',#465,#388,#389);
#304=AXIS2_PLACEMENT_3D('',#466,#390,#391);
#305=AXIS2_PLACEMENT_3D('',#467,#392,#393);
#306=DIRECTION('axis',(0.,0.,1.));
#307=DIRECTION('refdir',(1.,0.,0.));
#308=DIRECTION('center_axis',(0.,1.,0.));
#309=DIRECTION('ref_axis',(-1.,0.,0.));
#310=DIRECTION('center_axis',(0.,1.,0.));
#311=DIRECTION('ref_axis',(1.,0.,0.));
#312=DIRECTION('center_axis',(0.,1.,0.));
#313=DIRECTION('ref_axis',(1.,0.,0.));
#314=DIRECTION('',(0.,-1.,0.));
#315=DIRECTION('center_axis',(0.,1.,0.));
#316=DIRECTION('ref_axis',(1.,0.,0.));
#317=DIRECTION('center_axis',(0.,1.,0.));
#318=DIRECTION('ref_axis',(1.,0.,0.));
#319=DIRECTION('center_axis',(0.,-1.,0.));
#320=DIRECTION('ref_axis',(-1.,0.,0.));
#321=DIRECTION('center_axis',(0.,1.,0.));
#322=DIRECTION('ref_axis',(1.,0.,0.));
#323=DIRECTION('center_axis',(0.,1.,0.));
#324=DIRECTION('ref_axis',(1.,0.,0.));
#325=DIRECTION('',(0.965925826289068,-0.258819045102521,-1.18291797137867E-16));
#326=DIRECTION('center_axis',(0.,1.,0.));
#327=DIRECTION('ref_axis',(-1.,0.,0.));
#328=DIRECTION('center_axis',(0.,1.,0.));
#329=DIRECTION('ref_axis',(1.,0.,0.));
#330=DIRECTION('center_axis',(0.,1.,0.));
#331=DIRECTION('ref_axis',(1.,0.,0.));
#332=DIRECTION('',(0.,-1.,0.));
#333=DIRECTION('center_axis',(0.,-1.,0.));
#334=DIRECTION('ref_axis',(0.,0.,-1.));
#335=DIRECTION('center_axis',(0.,1.,0.));
#336=DIRECTION('ref_axis',(1.,0.,0.));
#337=DIRECTION('center_axis',(0.,1.,0.));
#338=DIRECTION('ref_axis',(1.,0.,0.));
#339=DIRECTION('center_axis',(0.,1.,0.));
#340=DIRECTION('ref_axis',(-1.,0.,0.));
#341=DIRECTION('center_axis',(0.,1.,0.));
#342=DIRECTION('ref_axis',(1.,0.,0.));
#343=DIRECTION('center_axis',(0.,1.,0.));
#344=DIRECTION('ref_axis',(1.,0.,0.));
#345=DIRECTION('',(-0.965925826289068,-0.258819045102522,1.18291797137867E-16));
#346=DIRECTION('center_axis',(0.,1.,0.));
#347=DIRECTION('ref_axis',(-1.,0.,0.));
#348=DIRECTION('center_axis',(0.,1.,0.));
#349=DIRECTION('ref_axis',(1.,0.,0.));
#350=DIRECTION('center_axis',(0.,1.,0.));
#351=DIRECTION('ref_axis',(1.,0.,0.));
#352=DIRECTION('',(0.,-1.,0.));
#353=DIRECTION('center_axis',(0.,1.,0.));
#354=DIRECTION('ref_axis',(0.,0.,1.));
#355=DIRECTION('center_axis',(0.,1.,0.));
#356=DIRECTION('ref_axis',(1.,0.,0.));
#357=DIRECTION('center_axis',(0.,1.,0.));
#358=DIRECTION('ref_axis',(1.,0.,0.));
#359=DIRECTION('center_axis',(0.,1.,0.));
#360=DIRECTION('ref_axis',(-1.,0.,0.));
#361=DIRECTION('',(0.,-1.,0.));
#362=DIRECTION('center_axis',(0.,1.,0.));
#363=DIRECTION('ref_axis',(1.,0.,0.));
#364=DIRECTION('center_axis',(0.,1.,0.));
#365=DIRECTION('ref_axis',(1.,0.,0.));
#366=DIRECTION('center_axis',(0.,1.,0.));
#367=DIRECTION('ref_axis',(0.,0.,1.));
#368=DIRECTION('center_axis',(0.,1.,0.));
#369=DIRECTION('ref_axis',(1.,0.,0.));
#370=DIRECTION('center_axis',(0.,1.,0.));
#371=DIRECTION('ref_axis',(1.,0.,0.));
#372=DIRECTION('center_axis',(0.,1.,0.));
#373=DIRECTION('ref_axis',(-1.,0.,0.));
#374=DIRECTION('',(0.,-1.,0.));
#375=DIRECTION('center_axis',(0.,1.,0.));
#376=DIRECTION('ref_axis',(1.,0.,0.));
#377=DIRECTION('center_axis',(0.,1.,0.));
#378=DIRECTION('ref_axis',(1.,0.,0.));
#379=DIRECTION('center_axis',(0.,-1.,0.));
#380=DIRECTION('ref_axis',(0.,0.,-1.));
#381=DIRECTION('center_axis',(0.,1.,0.));
#382=DIRECTION('ref_axis',(1.,0.,0.));
#383=DIRECTION('center_axis',(0.,1.,0.));
#384=DIRECTION('ref_axis',(1.,0.,0.));
#385=DIRECTION('center_axis',(0.,1.,0.));
#386=DIRECTION('ref_axis',(-1.,0.,0.));
#387=DIRECTION('',(0.,-1.,0.));
#388=DIRECTION('center_axis',(0.,1.,0.));
#389=DIRECTION('ref_axis',(1.,0.,0.));
#390=DIRECTION('center_axis',(0.,1.,0.));
#391=DIRECTION('ref_axis',(1.,0.,0.));
#392=DIRECTION('center_axis',(0.,-1.,0.));
#393=DIRECTION('ref_axis',(0.,0.,-1.));
#394=CARTESIAN_POINT('',(0.,0.,0.));
#395=CARTESIAN_POINT('Origin',(0.,1.5,0.));
#396=CARTESIAN_POINT('',(-15.,3.,0.));
#397=CARTESIAN_POINT('',(15.,3.,-1.83697019872103E-15));
#398=CARTESIAN_POINT('Origin',(0.,3.,0.));
#399=CARTESIAN_POINT('Origin',(0.,3.,0.));
#400=CARTESIAN_POINT('',(15.,0.,-1.83697019872103E-15));
#401=CARTESIAN_POINT('',(15.,1.5,-1.83697019872103E-15));
#402=CARTESIAN_POINT('',(-15.,0.,0.));
#403=CARTESIAN_POINT('Origin',(0.,0.,0.));
#404=CARTESIAN_POINT('Origin',(0.,0.,0.));
#405=CARTESIAN_POINT('Origin',(0.,3.73016154937481,0.));
#406=CARTESIAN_POINT('',(-9.54999999999999,4.46032309874962,0.));
#407=CARTESIAN_POINT('',(9.54999999999999,4.46032309874962,-1.16953769318572E-15));
#408=CARTESIAN_POINT('Origin',(0.,4.46032309874962,0.));
#409=CARTESIAN_POINT('Origin',(0.,4.46032309874962,0.));
#410=CARTESIAN_POINT('',(12.275,3.73016154937481,-1.50325394595338E-15));
#411=CARTESIAN_POINT('Origin',(0.,13.7301615493748,0.));
#412=CARTESIAN_POINT('',(-9.55,23.,0.));
#413=CARTESIAN_POINT('',(9.55,23.,-1.16953769318572E-15));
#414=CARTESIAN_POINT('Origin',(0.,23.,0.));
#415=CARTESIAN_POINT('Origin',(0.,23.,0.));
#416=CARTESIAN_POINT('',(9.55,13.7301615493748,-1.16953769318572E-15));
#417=CARTESIAN_POINT('Origin',(-20.0358983848623,23.,0.));
#418=CARTESIAN_POINT('',(-20.0358983848623,23.,0.));
#419=CARTESIAN_POINT('',(20.0358983848623,23.,-2.45368988250632E-15));
#420=CARTESIAN_POINT('Origin',(0.,23.,0.));
#421=CARTESIAN_POINT('Origin',(0.,23.,0.));
#422=CARTESIAN_POINT('Origin',(0.,24.,0.));
#423=CARTESIAN_POINT('',(-27.5,25.,0.));
#424=CARTESIAN_POINT('',(27.5,25.,-3.36777869765522E-15));
#425=CARTESIAN_POINT('Origin',(0.,25.,0.));
#426=CARTESIAN_POINT('Origin',(0.,25.,0.));
#427=CARTESIAN_POINT('',(23.7679491924311,24.,-2.91073429008077E-15));
#428=CARTESIAN_POINT('Origin',(0.,26.5,0.));
#429=CARTESIAN_POINT('',(-27.5,28.,0.));
#430=CARTESIAN_POINT('',(27.5,28.,-3.36777869765522E-15));
#431=CARTESIAN_POINT('Origin',(0.,28.,0.));
#432=CARTESIAN_POINT('Origin',(0.,28.,0.));
#433=CARTESIAN_POINT('',(27.5,26.5,-3.36777869765522E-15));
#434=CARTESIAN_POINT('Origin',(-20.6,28.,0.));
#435=CARTESIAN_POINT('',(-20.6,28.,0.));
#436=CARTESIAN_POINT('',(20.6,28.,-2.52277240624355E-15));
#437=CARTESIAN_POINT('Origin',(0.,28.,0.));
#438=CARTESIAN_POINT('Origin',(0.,28.,0.));
#439=CARTESIAN_POINT('Origin',(0.,26.75,0.));
#440=CARTESIAN_POINT('',(20.6,25.5,-2.52277240624355E-15));
#441=CARTESIAN_POINT('',(20.6,26.75,-2.52277240624355E-15));
#442=CARTESIAN_POINT('',(-20.6,25.5,0.));
#443=CARTESIAN_POINT('Origin',(0.,25.5,0.));
#444=CARTESIAN_POINT('Origin',(0.,25.5,0.));
#445=CARTESIAN_POINT('Origin',(-8.51,25.5,0.));
#446=CARTESIAN_POINT('',(-8.51,25.5,0.));
#447=CARTESIAN_POINT('',(8.51,25.5,-1.0421744260744E-15));
#448=CARTESIAN_POINT('Origin',(0.,25.5,0.));
#449=CARTESIAN_POINT('Origin',(0.,25.5,0.));
#450=CARTESIAN_POINT('Origin',(0.,3.75,0.));
#451=CARTESIAN_POINT('',(8.51,2.5,-1.0421744260744E-15));
#452=CARTESIAN_POINT('',(8.51,3.75,-1.0421744260744E-15));
#453=CARTESIAN_POINT('',(-8.51,2.5,0.));
#454=CARTESIAN_POINT('Origin',(0.,2.5,0.));
#455=CARTESIAN_POINT('Origin',(0.,2.5,0.));
#456=CARTESIAN_POINT('Origin',(-8.6,2.5,0.));
#457=CARTESIAN_POINT('',(-8.6,2.5,0.));
#458=CARTESIAN_POINT('',(8.6,2.5,-1.05319624726672E-15));
#459=CARTESIAN_POINT('Origin',(0.,2.5,0.));
#460=CARTESIAN_POINT('Origin',(0.,2.5,0.));
#461=CARTESIAN_POINT('Origin',(0.,1.25,0.));
#462=CARTESIAN_POINT('',(8.6,0.,-1.05319624726672E-15));
#463=CARTESIAN_POINT('',(8.6,1.25,-1.05319624726672E-15));
#464=CARTESIAN_POINT('',(-8.6,0.,0.));
#465=CARTESIAN_POINT('Origin',(0.,0.,0.));
#466=CARTESIAN_POINT('Origin',(0.,0.,0.));
#467=CARTESIAN_POINT('Origin',(-15.,0.,0.));
#468=UNCERTAINTY_MEASURE_WITH_UNIT(LENGTH_MEASURE(0.01),#472,
'DISTANCE_ACCURACY_VALUE',
'Maximum model space distance between geometric entities at asserted c
onnectivities');
#469=UNCERTAINTY_MEASURE_WITH_UNIT(LENGTH_MEASURE(0.01),#472,
'DISTANCE_ACCURACY_VALUE',
'Maximum model space distance between geometric entities at asserted c
onnectivities');
#470=(
GEOMETRIC_REPRESENTATION_CONTEXT(3)
GLOBAL_UNCERTAINTY_ASSIGNED_CONTEXT((#468))
GLOBAL_UNIT_ASSIGNED_CONTEXT((#472,#474,#475))
REPRESENTATION_CONTEXT('','3D')
);
#471=(
GEOMETRIC_REPRESENTATION_CONTEXT(3)
GLOBAL_UNCERTAINTY_ASSIGNED_CONTEXT((#469))
GLOBAL_UNIT_ASSIGNED_CONTEXT((#472,#474,#475))
REPRESENTATION_CONTEXT('','3D')
);
#472=(
LENGTH_UNIT()
NAMED_UNIT(*)
SI_UNIT(.MILLI.,.METRE.)
);
#473=(
LENGTH_UNIT()
NAMED_UNIT(*)
SI_UNIT(.CENTI.,.METRE.)
);
#474=(
NAMED_UNIT(*)
PLANE_ANGLE_UNIT()
SI_UNIT($,.RADIAN.)
);
#475=(
NAMED_UNIT(*)
SI_UNIT($,.STERADIAN.)
SOLID_ANGLE_UNIT()
);
#476=SHAPE_DEFINITION_REPRESENTATION(#477,#478);
#477=PRODUCT_DEFINITION_SHAPE('',$,#480);
#478=SHAPE_REPRESENTATION('',(#266),#470);
#479=PRODUCT_DEFINITION_CONTEXT('part definition',#484,'design');
#480=PRODUCT_DEFINITION('FL-SR40-16KF','FL-SR40-16KF',#481,#479);
#481=PRODUCT_DEFINITION_FORMATION('',$,#486);
#482=PRODUCT_RELATED_PRODUCT_CATEGORY('FL-SR40-16KF','FL-SR40-16KF',(#486));
#483=APPLICATION_PROTOCOL_DEFINITION('international standard',
'automotive_design',2009,#484);
#484=APPLICATION_CONTEXT(
'Core Data for Automotive Mechanical Design Process');
#485=PRODUCT_CONTEXT('part definition',#484,'mechanical');
#486=PRODUCT('FL-SR40-16KF','FL-SR40-16KF',$,(#485));
#487=PRESENTATION_STYLE_ASSIGNMENT((#488));
#488=SURFACE_STYLE_USAGE(.BOTH.,#491);
#489=SURFACE_STYLE_RENDERING_WITH_PROPERTIES($,#495,(#490));
#490=SURFACE_STYLE_TRANSPARENT(1.);
#491=SURFACE_SIDE_STYLE('',(#492,#489));
#492=SURFACE_STYLE_FILL_AREA(#493);
#493=FILL_AREA_STYLE('',(#494));
#494=FILL_AREA_STYLE_COLOUR('',#495);
#495=COLOUR_RGB('',0.745098039215686,0.737254901960784,0.729411764705882);
ENDSEC;
END-ISO-10303-21;
