ISO-10303-21;
HEADER;
/* Generated by software containing ST-Developer
 * from STEP Tools, Inc. (www.steptools.com) 
 */

FILE_DESCRIPTION(
/* description */ (''),
/* implementation_level */ '2;1');

FILE_NAME(
/* name */ 
'G:\\FLANGES & FITTINGS\\Full Nipples\\Step files\\FL-SCL50KF.stp',
/* time_stamp */ '2018-08-24T09:01:06+01:00',
/* author */ ('paul'),
/* organization */ (''),
/* preprocessor_version */ 'ST-DEVELOPER v17.2',
/* originating_system */ 'Autodesk Inventor 2019',
/* authorisation */ '');

FILE_SCHEMA (('AUTOMOTIVE_DESIGN { 1 0 10303 214 3 1 1 }'));
ENDSEC;

DATA;
#10=MECHANICAL_DESIGN_GEOMETRIC_PRESENTATION_REPRESENTATION('',(#13),#501);
#11=SHAPE_REPRESENTATION_RELATIONSHIP('SRR','None',#508,#12);
#12=ADVANCED_BREP_SHAPE_REPRESENTATION('',(#14),#500);
#13=STYLED_ITEM('',(#517),#14);
#14=MANIFOLD_SOLID_BREP('Solid1',#263);
#15=CONICAL_SURFACE('',#291,33.7679491924311,1.30899693899575);
#16=CONICAL_SURFACE('',#303,33.7679491924311,1.30899693899575);
#17=LINE('',#434,#25);
#18=LINE('',#440,#26);
#19=LINE('',#451,#27);
#20=LINE('',#462,#28);
#21=LINE('',#468,#29);
#22=LINE('',#476,#30);
#23=LINE('',#487,#31);
#24=LINE('',#497,#32);
#25=VECTOR('',#343,37.5);
#26=VECTOR('',#350,33.7679491924311);
#27=VECTOR('',#363,25.4);
#28=VECTOR('',#376,33.7679491924311);
#29=VECTOR('',#383,37.5);
#30=VECTOR('',#392,25.6);
#31=VECTOR('',#405,23.75);
#32=VECTOR('',#418,25.6);
#33=CYLINDRICAL_SURFACE('',#288,37.5);
#34=CYLINDRICAL_SURFACE('',#297,25.4);
#35=CYLINDRICAL_SURFACE('',#306,37.5);
#36=CYLINDRICAL_SURFACE('',#312,25.6);
#37=CYLINDRICAL_SURFACE('',#318,23.75);
#38=CYLINDRICAL_SURFACE('',#324,25.6);
#39=FACE_BOUND('',#60,.T.);
#40=FACE_BOUND('',#64,.T.);
#41=FACE_BOUND('',#67,.T.);
#42=FACE_BOUND('',#71,.T.);
#43=FACE_BOUND('',#74,.T.);
#44=FACE_BOUND('',#77,.T.);
#45=FACE_OUTER_BOUND('',#59,.T.);
#46=FACE_OUTER_BOUND('',#61,.T.);
#47=FACE_OUTER_BOUND('',#62,.T.);
#48=FACE_OUTER_BOUND('',#63,.T.);
#49=FACE_OUTER_BOUND('',#65,.T.);
#50=FACE_OUTER_BOUND('',#66,.T.);
#51=FACE_OUTER_BOUND('',#68,.T.);
#52=FACE_OUTER_BOUND('',#69,.T.);
#53=FACE_OUTER_BOUND('',#70,.T.);
#54=FACE_OUTER_BOUND('',#72,.T.);
#55=FACE_OUTER_BOUND('',#73,.T.);
#56=FACE_OUTER_BOUND('',#75,.T.);
#57=FACE_OUTER_BOUND('',#76,.T.);
#58=FACE_OUTER_BOUND('',#78,.T.);
#59=EDGE_LOOP('',(#171,#172));
#60=EDGE_LOOP('',(#173,#174));
#61=EDGE_LOOP('',(#175,#176,#177,#178,#179,#180));
#62=EDGE_LOOP('',(#181,#182,#183,#184,#185,#186));
#63=EDGE_LOOP('',(#187,#188));
#64=EDGE_LOOP('',(#189,#190));
#65=EDGE_LOOP('',(#191,#192,#193,#194,#195,#196));
#66=EDGE_LOOP('',(#197,#198));
#67=EDGE_LOOP('',(#199,#200));
#68=EDGE_LOOP('',(#201,#202,#203,#204,#205,#206));
#69=EDGE_LOOP('',(#207,#208,#209,#210,#211,#212));
#70=EDGE_LOOP('',(#213,#214));
#71=EDGE_LOOP('',(#215,#216));
#72=EDGE_LOOP('',(#217,#218,#219,#220,#221,#222));
#73=EDGE_LOOP('',(#223,#224));
#74=EDGE_LOOP('',(#225,#226));
#75=EDGE_LOOP('',(#227,#228,#229,#230,#231,#232));
#76=EDGE_LOOP('',(#233,#234));
#77=EDGE_LOOP('',(#235,#236));
#78=EDGE_LOOP('',(#237,#238,#239,#240,#241,#242));
#79=CIRCLE('',#284,37.5);
#80=CIRCLE('',#285,37.5);
#81=CIRCLE('',#286,25.6);
#82=CIRCLE('',#287,25.6);
#83=CIRCLE('',#289,37.5);
#84=CIRCLE('',#290,37.5);
#85=CIRCLE('',#292,30.0358983848622);
#86=CIRCLE('',#293,30.0358983848622);
#87=CIRCLE('',#295,25.4);
#88=CIRCLE('',#296,25.4);
#89=CIRCLE('',#298,25.4);
#90=CIRCLE('',#299,25.4);
#91=CIRCLE('',#301,30.0358983848622);
#92=CIRCLE('',#302,30.0358983848622);
#93=CIRCLE('',#304,37.5);
#94=CIRCLE('',#305,37.5);
#95=CIRCLE('',#307,37.5);
#96=CIRCLE('',#308,37.5);
#97=CIRCLE('',#310,25.6);
#98=CIRCLE('',#311,25.6);
#99=CIRCLE('',#313,25.6);
#100=CIRCLE('',#314,25.6);
#101=CIRCLE('',#316,23.75);
#102=CIRCLE('',#317,23.75);
#103=CIRCLE('',#319,23.75);
#104=CIRCLE('',#320,23.75);
#105=CIRCLE('',#322,25.6);
#106=CIRCLE('',#323,25.6);
#107=VERTEX_POINT('',#421);
#108=VERTEX_POINT('',#422);
#109=VERTEX_POINT('',#425);
#110=VERTEX_POINT('',#426);
#111=VERTEX_POINT('',#430);
#112=VERTEX_POINT('',#431);
#113=VERTEX_POINT('',#436);
#114=VERTEX_POINT('',#437);
#115=VERTEX_POINT('',#442);
#116=VERTEX_POINT('',#443);
#117=VERTEX_POINT('',#447);
#118=VERTEX_POINT('',#448);
#119=VERTEX_POINT('',#453);
#120=VERTEX_POINT('',#454);
#121=VERTEX_POINT('',#458);
#122=VERTEX_POINT('',#459);
#123=VERTEX_POINT('',#464);
#124=VERTEX_POINT('',#465);
#125=VERTEX_POINT('',#470);
#126=VERTEX_POINT('',#471);
#127=VERTEX_POINT('',#475);
#128=VERTEX_POINT('',#477);
#129=VERTEX_POINT('',#481);
#130=VERTEX_POINT('',#482);
#131=VERTEX_POINT('',#486);
#132=VERTEX_POINT('',#488);
#133=VERTEX_POINT('',#492);
#134=VERTEX_POINT('',#493);
#135=EDGE_CURVE('',#107,#108,#79,.T.);
#136=EDGE_CURVE('',#108,#107,#80,.T.);
#137=EDGE_CURVE('',#109,#110,#81,.T.);
#138=EDGE_CURVE('',#110,#109,#82,.T.);
#139=EDGE_CURVE('',#111,#112,#83,.T.);
#140=EDGE_CURVE('',#112,#111,#84,.T.);
#141=EDGE_CURVE('',#112,#108,#17,.T.);
#142=EDGE_CURVE('',#113,#114,#85,.T.);
#143=EDGE_CURVE('',#114,#113,#86,.T.);
#144=EDGE_CURVE('',#114,#112,#18,.T.);
#145=EDGE_CURVE('',#115,#116,#87,.T.);
#146=EDGE_CURVE('',#116,#115,#88,.T.);
#147=EDGE_CURVE('',#117,#118,#89,.T.);
#148=EDGE_CURVE('',#118,#117,#90,.T.);
#149=EDGE_CURVE('',#118,#116,#19,.T.);
#150=EDGE_CURVE('',#119,#120,#91,.T.);
#151=EDGE_CURVE('',#120,#119,#92,.T.);
#152=EDGE_CURVE('',#121,#122,#93,.T.);
#153=EDGE_CURVE('',#122,#121,#94,.T.);
#154=EDGE_CURVE('',#122,#120,#20,.T.);
#155=EDGE_CURVE('',#123,#124,#95,.T.);
#156=EDGE_CURVE('',#124,#123,#96,.T.);
#157=EDGE_CURVE('',#124,#122,#21,.T.);
#158=EDGE_CURVE('',#125,#126,#97,.T.);
#159=EDGE_CURVE('',#126,#125,#98,.T.);
#160=EDGE_CURVE('',#126,#127,#22,.T.);
#161=EDGE_CURVE('',#128,#127,#99,.T.);
#162=EDGE_CURVE('',#127,#128,#100,.T.);
#163=EDGE_CURVE('',#129,#130,#101,.T.);
#164=EDGE_CURVE('',#130,#129,#102,.T.);
#165=EDGE_CURVE('',#130,#131,#23,.T.);
#166=EDGE_CURVE('',#132,#131,#103,.T.);
#167=EDGE_CURVE('',#131,#132,#104,.T.);
#168=EDGE_CURVE('',#133,#134,#105,.T.);
#169=EDGE_CURVE('',#134,#133,#106,.T.);
#170=EDGE_CURVE('',#134,#110,#24,.T.);
#171=ORIENTED_EDGE('',*,*,#135,.F.);
#172=ORIENTED_EDGE('',*,*,#136,.F.);
#173=ORIENTED_EDGE('',*,*,#137,.T.);
#174=ORIENTED_EDGE('',*,*,#138,.T.);
#175=ORIENTED_EDGE('',*,*,#139,.F.);
#176=ORIENTED_EDGE('',*,*,#140,.F.);
#177=ORIENTED_EDGE('',*,*,#141,.T.);
#178=ORIENTED_EDGE('',*,*,#136,.T.);
#179=ORIENTED_EDGE('',*,*,#135,.T.);
#180=ORIENTED_EDGE('',*,*,#141,.F.);
#181=ORIENTED_EDGE('',*,*,#142,.F.);
#182=ORIENTED_EDGE('',*,*,#143,.F.);
#183=ORIENTED_EDGE('',*,*,#144,.T.);
#184=ORIENTED_EDGE('',*,*,#140,.T.);
#185=ORIENTED_EDGE('',*,*,#139,.T.);
#186=ORIENTED_EDGE('',*,*,#144,.F.);
#187=ORIENTED_EDGE('',*,*,#142,.T.);
#188=ORIENTED_EDGE('',*,*,#143,.T.);
#189=ORIENTED_EDGE('',*,*,#145,.F.);
#190=ORIENTED_EDGE('',*,*,#146,.F.);
#191=ORIENTED_EDGE('',*,*,#147,.F.);
#192=ORIENTED_EDGE('',*,*,#148,.F.);
#193=ORIENTED_EDGE('',*,*,#149,.T.);
#194=ORIENTED_EDGE('',*,*,#146,.T.);
#195=ORIENTED_EDGE('',*,*,#145,.T.);
#196=ORIENTED_EDGE('',*,*,#149,.F.);
#197=ORIENTED_EDGE('',*,*,#150,.F.);
#198=ORIENTED_EDGE('',*,*,#151,.F.);
#199=ORIENTED_EDGE('',*,*,#147,.T.);
#200=ORIENTED_EDGE('',*,*,#148,.T.);
#201=ORIENTED_EDGE('',*,*,#152,.F.);
#202=ORIENTED_EDGE('',*,*,#153,.F.);
#203=ORIENTED_EDGE('',*,*,#154,.T.);
#204=ORIENTED_EDGE('',*,*,#151,.T.);
#205=ORIENTED_EDGE('',*,*,#150,.T.);
#206=ORIENTED_EDGE('',*,*,#154,.F.);
#207=ORIENTED_EDGE('',*,*,#155,.F.);
#208=ORIENTED_EDGE('',*,*,#156,.F.);
#209=ORIENTED_EDGE('',*,*,#157,.T.);
#210=ORIENTED_EDGE('',*,*,#153,.T.);
#211=ORIENTED_EDGE('',*,*,#152,.T.);
#212=ORIENTED_EDGE('',*,*,#157,.F.);
#213=ORIENTED_EDGE('',*,*,#155,.T.);
#214=ORIENTED_EDGE('',*,*,#156,.T.);
#215=ORIENTED_EDGE('',*,*,#158,.F.);
#216=ORIENTED_EDGE('',*,*,#159,.F.);
#217=ORIENTED_EDGE('',*,*,#158,.T.);
#218=ORIENTED_EDGE('',*,*,#160,.T.);
#219=ORIENTED_EDGE('',*,*,#161,.F.);
#220=ORIENTED_EDGE('',*,*,#162,.F.);
#221=ORIENTED_EDGE('',*,*,#160,.F.);
#222=ORIENTED_EDGE('',*,*,#159,.T.);
#223=ORIENTED_EDGE('',*,*,#161,.T.);
#224=ORIENTED_EDGE('',*,*,#162,.T.);
#225=ORIENTED_EDGE('',*,*,#163,.F.);
#226=ORIENTED_EDGE('',*,*,#164,.F.);
#227=ORIENTED_EDGE('',*,*,#163,.T.);
#228=ORIENTED_EDGE('',*,*,#165,.T.);
#229=ORIENTED_EDGE('',*,*,#166,.F.);
#230=ORIENTED_EDGE('',*,*,#167,.F.);
#231=ORIENTED_EDGE('',*,*,#165,.F.);
#232=ORIENTED_EDGE('',*,*,#164,.T.);
#233=ORIENTED_EDGE('',*,*,#168,.F.);
#234=ORIENTED_EDGE('',*,*,#169,.F.);
#235=ORIENTED_EDGE('',*,*,#166,.T.);
#236=ORIENTED_EDGE('',*,*,#167,.T.);
#237=ORIENTED_EDGE('',*,*,#168,.T.);
#238=ORIENTED_EDGE('',*,*,#170,.T.);
#239=ORIENTED_EDGE('',*,*,#137,.F.);
#240=ORIENTED_EDGE('',*,*,#138,.F.);
#241=ORIENTED_EDGE('',*,*,#170,.F.);
#242=ORIENTED_EDGE('',*,*,#169,.T.);
#243=PLANE('',#283);
#244=PLANE('',#294);
#245=PLANE('',#300);
#246=PLANE('',#309);
#247=PLANE('',#315);
#248=PLANE('',#321);
#249=ADVANCED_FACE('',(#45,#39),#243,.T.);
#250=ADVANCED_FACE('',(#46),#33,.T.);
#251=ADVANCED_FACE('',(#47),#15,.T.);
#252=ADVANCED_FACE('',(#48,#40),#244,.T.);
#253=ADVANCED_FACE('',(#49),#34,.T.);
#254=ADVANCED_FACE('',(#50,#41),#245,.T.);
#255=ADVANCED_FACE('',(#51),#16,.T.);
#256=ADVANCED_FACE('',(#52),#35,.T.);
#257=ADVANCED_FACE('',(#53,#42),#246,.T.);
#258=ADVANCED_FACE('',(#54),#36,.F.);
#259=ADVANCED_FACE('',(#55,#43),#247,.T.);
#260=ADVANCED_FACE('',(#56),#37,.F.);
#261=ADVANCED_FACE('',(#57,#44),#248,.T.);
#262=ADVANCED_FACE('',(#58),#38,.F.);
#263=CLOSED_SHELL('',(#249,#250,#251,#252,#253,#254,#255,#256,#257,#258,
#259,#260,#261,#262));
#264=DERIVED_UNIT_ELEMENT(#266,1.);
#265=DERIVED_UNIT_ELEMENT(#503,3.);
#266=(
MASS_UNIT()
NAMED_UNIT(*)
SI_UNIT($,.GRAM.)
);
#267=DERIVED_UNIT((#264,#265));
#268=MEASURE_REPRESENTATION_ITEM('density measure',
POSITIVE_RATIO_MEASURE(8.),#267);
#269=PROPERTY_DEFINITION_REPRESENTATION(#274,#271);
#270=PROPERTY_DEFINITION_REPRESENTATION(#275,#272);
#271=REPRESENTATION('material name',(#273),#500);
#272=REPRESENTATION('density',(#268),#500);
#273=DESCRIPTIVE_REPRESENTATION_ITEM('Stainless Steel AISI 304',
'Stainless Steel AISI 304');
#274=PROPERTY_DEFINITION('material property','material name',#510);
#275=PROPERTY_DEFINITION('material property','density of part',#510);
#276=DATE_TIME_ROLE('creation_date');
#277=APPLIED_DATE_AND_TIME_ASSIGNMENT(#278,#276,(#510));
#278=DATE_AND_TIME(#279,#280);
#279=CALENDAR_DATE(2017,7,2);
#280=LOCAL_TIME(12,49,47.,#281);
#281=COORDINATED_UNIVERSAL_TIME_OFFSET(0,0,.BEHIND.);
#282=AXIS2_PLACEMENT_3D('placement',#419,#325,#326);
#283=AXIS2_PLACEMENT_3D('',#420,#327,#328);
#284=AXIS2_PLACEMENT_3D('',#423,#329,#330);
#285=AXIS2_PLACEMENT_3D('',#424,#331,#332);
#286=AXIS2_PLACEMENT_3D('',#427,#333,#334);
#287=AXIS2_PLACEMENT_3D('',#428,#335,#336);
#288=AXIS2_PLACEMENT_3D('',#429,#337,#338);
#289=AXIS2_PLACEMENT_3D('',#432,#339,#340);
#290=AXIS2_PLACEMENT_3D('',#433,#341,#342);
#291=AXIS2_PLACEMENT_3D('',#435,#344,#345);
#292=AXIS2_PLACEMENT_3D('',#438,#346,#347);
#293=AXIS2_PLACEMENT_3D('',#439,#348,#349);
#294=AXIS2_PLACEMENT_3D('',#441,#351,#352);
#295=AXIS2_PLACEMENT_3D('',#444,#353,#354);
#296=AXIS2_PLACEMENT_3D('',#445,#355,#356);
#297=AXIS2_PLACEMENT_3D('',#446,#357,#358);
#298=AXIS2_PLACEMENT_3D('',#449,#359,#360);
#299=AXIS2_PLACEMENT_3D('',#450,#361,#362);
#300=AXIS2_PLACEMENT_3D('',#452,#364,#365);
#301=AXIS2_PLACEMENT_3D('',#455,#366,#367);
#302=AXIS2_PLACEMENT_3D('',#456,#368,#369);
#303=AXIS2_PLACEMENT_3D('',#457,#370,#371);
#304=AXIS2_PLACEMENT_3D('',#460,#372,#373);
#305=AXIS2_PLACEMENT_3D('',#461,#374,#375);
#306=AXIS2_PLACEMENT_3D('',#463,#377,#378);
#307=AXIS2_PLACEMENT_3D('',#466,#379,#380);
#308=AXIS2_PLACEMENT_3D('',#467,#381,#382);
#309=AXIS2_PLACEMENT_3D('',#469,#384,#385);
#310=AXIS2_PLACEMENT_3D('',#472,#386,#387);
#311=AXIS2_PLACEMENT_3D('',#473,#388,#389);
#312=AXIS2_PLACEMENT_3D('',#474,#390,#391);
#313=AXIS2_PLACEMENT_3D('',#478,#393,#394);
#314=AXIS2_PLACEMENT_3D('',#479,#395,#396);
#315=AXIS2_PLACEMENT_3D('',#480,#397,#398);
#316=AXIS2_PLACEMENT_3D('',#483,#399,#400);
#317=AXIS2_PLACEMENT_3D('',#484,#401,#402);
#318=AXIS2_PLACEMENT_3D('',#485,#403,#404);
#319=AXIS2_PLACEMENT_3D('',#489,#406,#407);
#320=AXIS2_PLACEMENT_3D('',#490,#408,#409);
#321=AXIS2_PLACEMENT_3D('',#491,#410,#411);
#322=AXIS2_PLACEMENT_3D('',#494,#412,#413);
#323=AXIS2_PLACEMENT_3D('',#495,#414,#415);
#324=AXIS2_PLACEMENT_3D('',#496,#416,#417);
#325=DIRECTION('axis',(0.,0.,1.));
#326=DIRECTION('refdir',(1.,0.,0.));
#327=DIRECTION('center_axis',(0.,-1.,0.));
#328=DIRECTION('ref_axis',(0.,0.,-1.));
#329=DIRECTION('center_axis',(0.,1.,0.));
#330=DIRECTION('ref_axis',(1.,0.,0.));
#331=DIRECTION('center_axis',(0.,1.,0.));
#332=DIRECTION('ref_axis',(1.,0.,0.));
#333=DIRECTION('center_axis',(0.,1.,0.));
#334=DIRECTION('ref_axis',(1.,0.,0.));
#335=DIRECTION('center_axis',(0.,1.,0.));
#336=DIRECTION('ref_axis',(1.,0.,0.));
#337=DIRECTION('center_axis',(0.,1.,0.));
#338=DIRECTION('ref_axis',(-1.,0.,0.));
#339=DIRECTION('center_axis',(0.,1.,0.));
#340=DIRECTION('ref_axis',(1.,0.,0.));
#341=DIRECTION('center_axis',(0.,1.,0.));
#342=DIRECTION('ref_axis',(1.,0.,0.));
#343=DIRECTION('',(0.,-1.,0.));
#344=DIRECTION('center_axis',(0.,-1.,0.));
#345=DIRECTION('ref_axis',(-1.,0.,0.));
#346=DIRECTION('center_axis',(0.,1.,0.));
#347=DIRECTION('ref_axis',(1.,0.,0.));
#348=DIRECTION('center_axis',(0.,1.,0.));
#349=DIRECTION('ref_axis',(1.,0.,0.));
#350=DIRECTION('',(0.965925826289069,-0.258819045102519,-1.18291797137867E-16));
#351=DIRECTION('center_axis',(0.,1.,0.));
#352=DIRECTION('ref_axis',(0.,0.,1.));
#353=DIRECTION('center_axis',(0.,1.,0.));
#354=DIRECTION('ref_axis',(1.,0.,0.));
#355=DIRECTION('center_axis',(0.,1.,0.));
#356=DIRECTION('ref_axis',(1.,0.,0.));
#357=DIRECTION('center_axis',(0.,1.,0.));
#358=DIRECTION('ref_axis',(-1.,0.,0.));
#359=DIRECTION('center_axis',(0.,1.,0.));
#360=DIRECTION('ref_axis',(1.,0.,0.));
#361=DIRECTION('center_axis',(0.,1.,0.));
#362=DIRECTION('ref_axis',(1.,0.,0.));
#363=DIRECTION('',(0.,-1.,0.));
#364=DIRECTION('center_axis',(0.,-1.,0.));
#365=DIRECTION('ref_axis',(0.,0.,-1.));
#366=DIRECTION('center_axis',(0.,1.,0.));
#367=DIRECTION('ref_axis',(1.,0.,0.));
#368=DIRECTION('center_axis',(0.,1.,0.));
#369=DIRECTION('ref_axis',(1.,0.,0.));
#370=DIRECTION('center_axis',(0.,1.,0.));
#371=DIRECTION('ref_axis',(-1.,0.,0.));
#372=DIRECTION('center_axis',(0.,1.,0.));
#373=DIRECTION('ref_axis',(1.,0.,0.));
#374=DIRECTION('center_axis',(0.,1.,0.));
#375=DIRECTION('ref_axis',(1.,0.,0.));
#376=DIRECTION('',(-0.965925826289069,-0.258819045102518,1.18291797137867E-16));
#377=DIRECTION('center_axis',(0.,1.,0.));
#378=DIRECTION('ref_axis',(-1.,0.,0.));
#379=DIRECTION('center_axis',(0.,1.,0.));
#380=DIRECTION('ref_axis',(1.,0.,0.));
#381=DIRECTION('center_axis',(0.,1.,0.));
#382=DIRECTION('ref_axis',(1.,0.,0.));
#383=DIRECTION('',(0.,-1.,0.));
#384=DIRECTION('center_axis',(0.,1.,0.));
#385=DIRECTION('ref_axis',(0.,0.,1.));
#386=DIRECTION('center_axis',(0.,1.,0.));
#387=DIRECTION('ref_axis',(1.,0.,0.));
#388=DIRECTION('center_axis',(0.,1.,0.));
#389=DIRECTION('ref_axis',(1.,0.,0.));
#390=DIRECTION('center_axis',(0.,1.,0.));
#391=DIRECTION('ref_axis',(-1.,0.,0.));
#392=DIRECTION('',(0.,-1.,0.));
#393=DIRECTION('center_axis',(0.,1.,0.));
#394=DIRECTION('ref_axis',(1.,0.,0.));
#395=DIRECTION('center_axis',(0.,1.,0.));
#396=DIRECTION('ref_axis',(1.,0.,0.));
#397=DIRECTION('center_axis',(0.,1.,0.));
#398=DIRECTION('ref_axis',(0.,0.,1.));
#399=DIRECTION('center_axis',(0.,1.,0.));
#400=DIRECTION('ref_axis',(1.,0.,0.));
#401=DIRECTION('center_axis',(0.,1.,0.));
#402=DIRECTION('ref_axis',(1.,0.,0.));
#403=DIRECTION('center_axis',(0.,1.,0.));
#404=DIRECTION('ref_axis',(-1.,0.,0.));
#405=DIRECTION('',(0.,-1.,0.));
#406=DIRECTION('center_axis',(0.,1.,0.));
#407=DIRECTION('ref_axis',(1.,0.,0.));
#408=DIRECTION('center_axis',(0.,1.,0.));
#409=DIRECTION('ref_axis',(1.,0.,0.));
#410=DIRECTION('center_axis',(0.,-1.,0.));
#411=DIRECTION('ref_axis',(0.,0.,-1.));
#412=DIRECTION('center_axis',(0.,1.,0.));
#413=DIRECTION('ref_axis',(1.,0.,0.));
#414=DIRECTION('center_axis',(0.,1.,0.));
#415=DIRECTION('ref_axis',(1.,0.,0.));
#416=DIRECTION('center_axis',(0.,1.,0.));
#417=DIRECTION('ref_axis',(-1.,0.,0.));
#418=DIRECTION('',(0.,-1.,0.));
#419=CARTESIAN_POINT('',(0.,0.,0.));
#420=CARTESIAN_POINT('Origin',(-37.5,0.,0.));
#421=CARTESIAN_POINT('',(-37.5,0.,0.));
#422=CARTESIAN_POINT('',(37.5,0.,-4.59242549680258E-15));
#423=CARTESIAN_POINT('Origin',(0.,0.,0.));
#424=CARTESIAN_POINT('Origin',(0.,0.,0.));
#425=CARTESIAN_POINT('',(-25.6,0.,0.));
#426=CARTESIAN_POINT('',(25.6,0.,-3.13509580581722E-15));
#427=CARTESIAN_POINT('Origin',(0.,0.,0.));
#428=CARTESIAN_POINT('Origin',(0.,0.,0.));
#429=CARTESIAN_POINT('Origin',(0.,1.5,0.));
#430=CARTESIAN_POINT('',(-37.5,3.,0.));
#431=CARTESIAN_POINT('',(37.5,3.,-4.59242549680258E-15));
#432=CARTESIAN_POINT('Origin',(0.,3.,0.));
#433=CARTESIAN_POINT('Origin',(0.,3.,0.));
#434=CARTESIAN_POINT('',(37.5,1.5,-4.59242549680258E-15));
#435=CARTESIAN_POINT('Origin',(0.,4.,0.));
#436=CARTESIAN_POINT('',(-30.0358983848622,5.,0.));
#437=CARTESIAN_POINT('',(30.0358983848622,5.,-3.67833668165366E-15));
#438=CARTESIAN_POINT('Origin',(0.,5.,0.));
#439=CARTESIAN_POINT('Origin',(0.,5.,0.));
#440=CARTESIAN_POINT('',(33.7679491924311,4.,-4.13538108922812E-15));
#441=CARTESIAN_POINT('Origin',(-25.4,5.,0.));
#442=CARTESIAN_POINT('',(-25.4,5.,0.));
#443=CARTESIAN_POINT('',(25.4,5.,-3.11060286983428E-15));
#444=CARTESIAN_POINT('Origin',(0.,5.,0.));
#445=CARTESIAN_POINT('Origin',(0.,5.,0.));
#446=CARTESIAN_POINT('Origin',(0.,160.,0.));
#447=CARTESIAN_POINT('',(-25.4,315.,0.));
#448=CARTESIAN_POINT('',(25.4,315.,-3.11060286983428E-15));
#449=CARTESIAN_POINT('Origin',(0.,315.,0.));
#450=CARTESIAN_POINT('Origin',(0.,315.,0.));
#451=CARTESIAN_POINT('',(25.4,160.,-3.11060286983428E-15));
#452=CARTESIAN_POINT('Origin',(-30.0358983848622,315.,0.));
#453=CARTESIAN_POINT('',(-30.0358983848622,315.,0.));
#454=CARTESIAN_POINT('',(30.0358983848622,315.,-3.67833668165367E-15));
#455=CARTESIAN_POINT('Origin',(0.,315.,0.));
#456=CARTESIAN_POINT('Origin',(0.,315.,0.));
#457=CARTESIAN_POINT('Origin',(0.,316.,0.));
#458=CARTESIAN_POINT('',(-37.5,317.,0.));
#459=CARTESIAN_POINT('',(37.5,317.,-4.59242549680258E-15));
#460=CARTESIAN_POINT('Origin',(0.,317.,0.));
#461=CARTESIAN_POINT('Origin',(0.,317.,0.));
#462=CARTESIAN_POINT('',(33.7679491924311,316.,-4.13538108922812E-15));
#463=CARTESIAN_POINT('Origin',(0.,318.5,0.));
#464=CARTESIAN_POINT('',(-37.5,320.,0.));
#465=CARTESIAN_POINT('',(37.5,320.,-4.59242549680258E-15));
#466=CARTESIAN_POINT('Origin',(0.,320.,0.));
#467=CARTESIAN_POINT('Origin',(0.,320.,0.));
#468=CARTESIAN_POINT('',(37.5,318.5,-4.59242549680258E-15));
#469=CARTESIAN_POINT('Origin',(-25.6,320.,0.));
#470=CARTESIAN_POINT('',(-25.6,320.,0.));
#471=CARTESIAN_POINT('',(25.6,320.,-3.13509580581723E-15));
#472=CARTESIAN_POINT('Origin',(0.,320.,0.));
#473=CARTESIAN_POINT('Origin',(0.,320.,0.));
#474=CARTESIAN_POINT('Origin',(0.,318.75,0.));
#475=CARTESIAN_POINT('',(25.6,317.5,-3.13509580581723E-15));
#476=CARTESIAN_POINT('',(25.6,318.75,-3.13509580581723E-15));
#477=CARTESIAN_POINT('',(-25.6,317.5,0.));
#478=CARTESIAN_POINT('Origin',(0.,317.5,0.));
#479=CARTESIAN_POINT('Origin',(0.,317.5,0.));
#480=CARTESIAN_POINT('Origin',(-23.75,317.5,0.));
#481=CARTESIAN_POINT('',(-23.75,317.5,0.));
#482=CARTESIAN_POINT('',(23.75,317.5,-2.90853614797496E-15));
#483=CARTESIAN_POINT('Origin',(0.,317.5,0.));
#484=CARTESIAN_POINT('Origin',(0.,317.5,0.));
#485=CARTESIAN_POINT('Origin',(0.,160.,0.));
#486=CARTESIAN_POINT('',(23.75,2.5,-2.90853614797496E-15));
#487=CARTESIAN_POINT('',(23.75,160.,-2.90853614797496E-15));
#488=CARTESIAN_POINT('',(-23.75,2.5,0.));
#489=CARTESIAN_POINT('Origin',(0.,2.5,0.));
#490=CARTESIAN_POINT('Origin',(0.,2.5,0.));
#491=CARTESIAN_POINT('Origin',(-25.6,2.5,0.));
#492=CARTESIAN_POINT('',(-25.6,2.5,0.));
#493=CARTESIAN_POINT('',(25.6,2.5,-3.13509580581722E-15));
#494=CARTESIAN_POINT('Origin',(0.,2.5,0.));
#495=CARTESIAN_POINT('Origin',(0.,2.5,0.));
#496=CARTESIAN_POINT('Origin',(0.,1.25,0.));
#497=CARTESIAN_POINT('',(25.6,1.25,-3.13509580581722E-15));
#498=UNCERTAINTY_MEASURE_WITH_UNIT(LENGTH_MEASURE(0.01),#502,
'DISTANCE_ACCURACY_VALUE',
'Maximum model space distance between geometric entities at asserted c
onnectivities');
#499=UNCERTAINTY_MEASURE_WITH_UNIT(LENGTH_MEASURE(0.01),#502,
'DISTANCE_ACCURACY_VALUE',
'Maximum model space distance between geometric entities at asserted c
onnectivities');
#500=(
GEOMETRIC_REPRESENTATION_CONTEXT(3)
GLOBAL_UNCERTAINTY_ASSIGNED_CONTEXT((#498))
GLOBAL_UNIT_ASSIGNED_CONTEXT((#502,#504,#505))
REPRESENTATION_CONTEXT('','3D')
);
#501=(
GEOMETRIC_REPRESENTATION_CONTEXT(3)
GLOBAL_UNCERTAINTY_ASSIGNED_CONTEXT((#499))
GLOBAL_UNIT_ASSIGNED_CONTEXT((#502,#504,#505))
REPRESENTATION_CONTEXT('','3D')
);
#502=(
LENGTH_UNIT()
NAMED_UNIT(*)
SI_UNIT(.MILLI.,.METRE.)
);
#503=(
LENGTH_UNIT()
NAMED_UNIT(*)
SI_UNIT(.CENTI.,.METRE.)
);
#504=(
NAMED_UNIT(*)
PLANE_ANGLE_UNIT()
SI_UNIT($,.RADIAN.)
);
#505=(
NAMED_UNIT(*)
SI_UNIT($,.STERADIAN.)
SOLID_ANGLE_UNIT()
);
#506=SHAPE_DEFINITION_REPRESENTATION(#507,#508);
#507=PRODUCT_DEFINITION_SHAPE('',$,#510);
#508=SHAPE_REPRESENTATION('',(#282),#500);
#509=PRODUCT_DEFINITION_CONTEXT('part definition',#514,'design');
#510=PRODUCT_DEFINITION('FL-SCL50KF','FL-SCL50KF',#511,#509);
#511=PRODUCT_DEFINITION_FORMATION('',$,#516);
#512=PRODUCT_RELATED_PRODUCT_CATEGORY('FL-SCL50KF','FL-SCL50KF',(#516));
#513=APPLICATION_PROTOCOL_DEFINITION('international standard',
'automotive_design',2009,#514);
#514=APPLICATION_CONTEXT(
'Core Data for Automotive Mechanical Design Process');
#515=PRODUCT_CONTEXT('part definition',#514,'mechanical');
#516=PRODUCT('FL-SCL50KF','FL-SCL50KF',$,(#515));
#517=PRESENTATION_STYLE_ASSIGNMENT((#518));
#518=SURFACE_STYLE_USAGE(.BOTH.,#521);
#519=SURFACE_STYLE_RENDERING_WITH_PROPERTIES($,#525,(#520));
#520=SURFACE_STYLE_TRANSPARENT(1.);
#521=SURFACE_SIDE_STYLE('',(#522,#519));
#522=SURFACE_STYLE_FILL_AREA(#523);
#523=FILL_AREA_STYLE('',(#524));
#524=FILL_AREA_STYLE_COLOUR('',#525);
#525=COLOUR_RGB('',0.745098039215686,0.737254901960784,0.729411764705882);
ENDSEC;
END-ISO-10303-21;
