ISO-10303-21;
HEADER;
/* Generated by software containing ST-Developer
 * from STEP Tools, Inc. (www.steptools.com) 
 */

FILE_DESCRIPTION(
/* description */ (''),
/* implementation_level */ '2;1');

FILE_NAME(
/* name */ 
'G:\\FLANGES & FITTINGS\\Full Nipples\\Step files\\FL-SCL40KF.stp',
/* time_stamp */ '2018-08-24T08:56:30+01:00',
/* author */ ('paul'),
/* organization */ (''),
/* preprocessor_version */ 'ST-DEVELOPER v17.2',
/* originating_system */ 'Autodesk Inventor 2019',
/* authorisation */ '');

FILE_SCHEMA (('AUTOMOTIVE_DESIGN { 1 0 10303 214 3 1 1 }'));
ENDSEC;

DATA;
#10=MECHANICAL_DESIGN_GEOMETRIC_PRESENTATION_REPRESENTATION('',(#13),#423);
#11=SHAPE_REPRESENTATION_RELATIONSHIP('SRR','None',#430,#12);
#12=ADVANCED_BREP_SHAPE_REPRESENTATION('',(#14),#422);
#13=STYLED_ITEM('',(#439),#14);
#14=MANIFOLD_SOLID_BREP('Solid1',#217);
#15=FACE_BOUND('',#55,.T.);
#16=FACE_BOUND('',#58,.T.);
#17=PLANE('',#266);
#18=PLANE('',#272);
#19=CYLINDRICAL_SURFACE('',#249,19.05);
#20=CYLINDRICAL_SURFACE('',#257,27.5);
#21=CYLINDRICAL_SURFACE('',#263,27.5);
#22=CYLINDRICAL_SURFACE('',#269,17.5);
#23=LINE('',#370,#29);
#24=LINE('',#381,#30);
#25=LINE('',#392,#31);
#26=LINE('',#401,#32);
#27=LINE('',#407,#33);
#28=LINE('',#415,#34);
#29=VECTOR('',#293,23.275);
#30=VECTOR('',#306,19.05);
#31=VECTOR('',#319,27.5);
#32=VECTOR('',#330,23.275);
#33=VECTOR('',#337,27.5);
#34=VECTOR('',#346,17.5);
#35=CONICAL_SURFACE('',#245,23.275,1.30899693899575);
#36=CONICAL_SURFACE('',#260,23.275,1.30899693899575);
#37=FACE_OUTER_BOUND('',#47,.T.);
#38=FACE_OUTER_BOUND('',#48,.T.);
#39=FACE_OUTER_BOUND('',#49,.T.);
#40=FACE_OUTER_BOUND('',#50,.T.);
#41=FACE_OUTER_BOUND('',#51,.T.);
#42=FACE_OUTER_BOUND('',#52,.T.);
#43=FACE_OUTER_BOUND('',#53,.T.);
#44=FACE_OUTER_BOUND('',#54,.T.);
#45=FACE_OUTER_BOUND('',#56,.T.);
#46=FACE_OUTER_BOUND('',#57,.T.);
#47=EDGE_LOOP('',(#141,#142,#143,#144,#145,#146,#147,#148));
#48=EDGE_LOOP('',(#149,#150,#151,#152,#153,#154,#155,#156));
#49=EDGE_LOOP('',(#157,#158,#159,#160,#161,#162,#163));
#50=EDGE_LOOP('',(#164,#165,#166,#167,#168,#169,#170,#171));
#51=EDGE_LOOP('',(#172,#173,#174,#175,#176,#177,#178));
#52=EDGE_LOOP('',(#179,#180,#181,#182,#183,#184));
#53=EDGE_LOOP('',(#185,#186,#187,#188,#189,#190));
#54=EDGE_LOOP('',(#191,#192));
#55=EDGE_LOOP('',(#193,#194));
#56=EDGE_LOOP('',(#195,#196,#197,#198,#199,#200));
#57=EDGE_LOOP('',(#201,#202));
#58=EDGE_LOOP('',(#203,#204));
#59=CIRCLE('',#238,19.4205904774488);
#60=CIRCLE('',#239,0.5);
#61=CIRCLE('',#240,19.05);
#62=CIRCLE('',#241,19.05);
#63=CIRCLE('',#242,19.05);
#64=CIRCLE('',#243,19.4205904774488);
#65=CIRCLE('',#244,19.4205904774488);
#66=CIRCLE('',#246,27.1294095225513);
#67=CIRCLE('',#247,27.1294095225513);
#68=CIRCLE('',#248,27.1294095225513);
#69=CIRCLE('',#250,19.05);
#70=CIRCLE('',#251,19.05);
#71=CIRCLE('',#253,0.5);
#72=CIRCLE('',#254,27.5);
#73=CIRCLE('',#255,27.5);
#74=CIRCLE('',#256,27.5);
#75=CIRCLE('',#258,27.5);
#76=CIRCLE('',#259,27.5);
#77=CIRCLE('',#261,27.5);
#78=CIRCLE('',#262,27.5);
#79=CIRCLE('',#264,27.5);
#80=CIRCLE('',#265,27.5);
#81=CIRCLE('',#267,17.5000000000001);
#82=CIRCLE('',#268,17.5000000000001);
#83=CIRCLE('',#270,17.5);
#84=CIRCLE('',#271,17.5);
#85=VERTEX_POINT('',#355);
#86=VERTEX_POINT('',#356);
#87=VERTEX_POINT('',#358);
#88=VERTEX_POINT('',#360);
#89=VERTEX_POINT('',#362);
#90=VERTEX_POINT('',#365);
#91=VERTEX_POINT('',#369);
#92=VERTEX_POINT('',#371);
#93=VERTEX_POINT('',#373);
#94=VERTEX_POINT('',#377);
#95=VERTEX_POINT('',#378);
#96=VERTEX_POINT('',#383);
#97=VERTEX_POINT('',#385);
#98=VERTEX_POINT('',#387);
#99=VERTEX_POINT('',#391);
#100=VERTEX_POINT('',#393);
#101=VERTEX_POINT('',#397);
#102=VERTEX_POINT('',#398);
#103=VERTEX_POINT('',#403);
#104=VERTEX_POINT('',#404);
#105=VERTEX_POINT('',#409);
#106=VERTEX_POINT('',#410);
#107=VERTEX_POINT('',#414);
#108=VERTEX_POINT('',#416);
#109=EDGE_CURVE('',#85,#86,#59,.T.);
#110=EDGE_CURVE('',#86,#87,#60,.T.);
#111=EDGE_CURVE('',#87,#88,#61,.T.);
#112=EDGE_CURVE('',#88,#89,#62,.T.);
#113=EDGE_CURVE('',#89,#87,#63,.T.);
#114=EDGE_CURVE('',#86,#90,#64,.T.);
#115=EDGE_CURVE('',#90,#85,#65,.T.);
#116=EDGE_CURVE('',#90,#91,#23,.T.);
#117=EDGE_CURVE('',#92,#91,#66,.T.);
#118=EDGE_CURVE('',#93,#92,#67,.T.);
#119=EDGE_CURVE('',#91,#93,#68,.T.);
#120=EDGE_CURVE('',#94,#95,#69,.T.);
#121=EDGE_CURVE('',#95,#94,#70,.T.);
#122=EDGE_CURVE('',#95,#89,#24,.T.);
#123=EDGE_CURVE('',#93,#96,#71,.T.);
#124=EDGE_CURVE('',#96,#97,#72,.T.);
#125=EDGE_CURVE('',#97,#98,#73,.T.);
#126=EDGE_CURVE('',#98,#96,#74,.T.);
#127=EDGE_CURVE('',#97,#99,#25,.T.);
#128=EDGE_CURVE('',#99,#100,#75,.T.);
#129=EDGE_CURVE('',#100,#99,#76,.T.);
#130=EDGE_CURVE('',#101,#102,#77,.T.);
#131=EDGE_CURVE('',#102,#101,#78,.T.);
#132=EDGE_CURVE('',#102,#95,#26,.T.);
#133=EDGE_CURVE('',#103,#104,#79,.T.);
#134=EDGE_CURVE('',#104,#103,#80,.T.);
#135=EDGE_CURVE('',#104,#102,#27,.T.);
#136=EDGE_CURVE('',#105,#106,#81,.T.);
#137=EDGE_CURVE('',#106,#105,#82,.T.);
#138=EDGE_CURVE('',#106,#107,#28,.T.);
#139=EDGE_CURVE('',#108,#107,#83,.T.);
#140=EDGE_CURVE('',#107,#108,#84,.T.);
#141=ORIENTED_EDGE('',*,*,#109,.T.);
#142=ORIENTED_EDGE('',*,*,#110,.T.);
#143=ORIENTED_EDGE('',*,*,#111,.T.);
#144=ORIENTED_EDGE('',*,*,#112,.T.);
#145=ORIENTED_EDGE('',*,*,#113,.T.);
#146=ORIENTED_EDGE('',*,*,#110,.F.);
#147=ORIENTED_EDGE('',*,*,#114,.T.);
#148=ORIENTED_EDGE('',*,*,#115,.T.);
#149=ORIENTED_EDGE('',*,*,#109,.F.);
#150=ORIENTED_EDGE('',*,*,#115,.F.);
#151=ORIENTED_EDGE('',*,*,#116,.T.);
#152=ORIENTED_EDGE('',*,*,#117,.F.);
#153=ORIENTED_EDGE('',*,*,#118,.F.);
#154=ORIENTED_EDGE('',*,*,#119,.F.);
#155=ORIENTED_EDGE('',*,*,#116,.F.);
#156=ORIENTED_EDGE('',*,*,#114,.F.);
#157=ORIENTED_EDGE('',*,*,#120,.F.);
#158=ORIENTED_EDGE('',*,*,#121,.F.);
#159=ORIENTED_EDGE('',*,*,#122,.T.);
#160=ORIENTED_EDGE('',*,*,#112,.F.);
#161=ORIENTED_EDGE('',*,*,#111,.F.);
#162=ORIENTED_EDGE('',*,*,#113,.F.);
#163=ORIENTED_EDGE('',*,*,#122,.F.);
#164=ORIENTED_EDGE('',*,*,#117,.T.);
#165=ORIENTED_EDGE('',*,*,#119,.T.);
#166=ORIENTED_EDGE('',*,*,#123,.T.);
#167=ORIENTED_EDGE('',*,*,#124,.T.);
#168=ORIENTED_EDGE('',*,*,#125,.T.);
#169=ORIENTED_EDGE('',*,*,#126,.T.);
#170=ORIENTED_EDGE('',*,*,#123,.F.);
#171=ORIENTED_EDGE('',*,*,#118,.T.);
#172=ORIENTED_EDGE('',*,*,#126,.F.);
#173=ORIENTED_EDGE('',*,*,#125,.F.);
#174=ORIENTED_EDGE('',*,*,#127,.T.);
#175=ORIENTED_EDGE('',*,*,#128,.T.);
#176=ORIENTED_EDGE('',*,*,#129,.T.);
#177=ORIENTED_EDGE('',*,*,#127,.F.);
#178=ORIENTED_EDGE('',*,*,#124,.F.);
#179=ORIENTED_EDGE('',*,*,#130,.F.);
#180=ORIENTED_EDGE('',*,*,#131,.F.);
#181=ORIENTED_EDGE('',*,*,#132,.T.);
#182=ORIENTED_EDGE('',*,*,#121,.T.);
#183=ORIENTED_EDGE('',*,*,#120,.T.);
#184=ORIENTED_EDGE('',*,*,#132,.F.);
#185=ORIENTED_EDGE('',*,*,#133,.F.);
#186=ORIENTED_EDGE('',*,*,#134,.F.);
#187=ORIENTED_EDGE('',*,*,#135,.T.);
#188=ORIENTED_EDGE('',*,*,#131,.T.);
#189=ORIENTED_EDGE('',*,*,#130,.T.);
#190=ORIENTED_EDGE('',*,*,#135,.F.);
#191=ORIENTED_EDGE('',*,*,#133,.T.);
#192=ORIENTED_EDGE('',*,*,#134,.T.);
#193=ORIENTED_EDGE('',*,*,#136,.F.);
#194=ORIENTED_EDGE('',*,*,#137,.F.);
#195=ORIENTED_EDGE('',*,*,#136,.T.);
#196=ORIENTED_EDGE('',*,*,#138,.T.);
#197=ORIENTED_EDGE('',*,*,#139,.F.);
#198=ORIENTED_EDGE('',*,*,#140,.F.);
#199=ORIENTED_EDGE('',*,*,#138,.F.);
#200=ORIENTED_EDGE('',*,*,#137,.T.);
#201=ORIENTED_EDGE('',*,*,#129,.F.);
#202=ORIENTED_EDGE('',*,*,#128,.F.);
#203=ORIENTED_EDGE('',*,*,#139,.T.);
#204=ORIENTED_EDGE('',*,*,#140,.T.);
#205=TOROIDAL_SURFACE('',#237,19.55,0.5);
#206=TOROIDAL_SURFACE('',#252,27.,0.5);
#207=ADVANCED_FACE('',(#37),#205,.F.);
#208=ADVANCED_FACE('',(#38),#35,.T.);
#209=ADVANCED_FACE('',(#39),#19,.T.);
#210=ADVANCED_FACE('',(#40),#206,.T.);
#211=ADVANCED_FACE('',(#41),#20,.T.);
#212=ADVANCED_FACE('',(#42),#36,.T.);
#213=ADVANCED_FACE('',(#43),#21,.T.);
#214=ADVANCED_FACE('',(#44,#15),#17,.T.);
#215=ADVANCED_FACE('',(#45),#22,.F.);
#216=ADVANCED_FACE('',(#46,#16),#18,.T.);
#217=CLOSED_SHELL('',(#207,#208,#209,#210,#211,#212,#213,#214,#215,#216));
#218=DERIVED_UNIT_ELEMENT(#220,1.);
#219=DERIVED_UNIT_ELEMENT(#425,3.);
#220=(
MASS_UNIT()
NAMED_UNIT(*)
SI_UNIT($,.GRAM.)
);
#221=DERIVED_UNIT((#218,#219));
#222=MEASURE_REPRESENTATION_ITEM('density measure',
POSITIVE_RATIO_MEASURE(8.),#221);
#223=PROPERTY_DEFINITION_REPRESENTATION(#228,#225);
#224=PROPERTY_DEFINITION_REPRESENTATION(#229,#226);
#225=REPRESENTATION('material name',(#227),#422);
#226=REPRESENTATION('density',(#222),#422);
#227=DESCRIPTIVE_REPRESENTATION_ITEM('Stainless Steel AISI 304',
'Stainless Steel AISI 304');
#228=PROPERTY_DEFINITION('material property','material name',#432);
#229=PROPERTY_DEFINITION('material property','density of part',#432);
#230=DATE_TIME_ROLE('creation_date');
#231=APPLIED_DATE_AND_TIME_ASSIGNMENT(#232,#230,(#432));
#232=DATE_AND_TIME(#233,#234);
#233=CALENDAR_DATE(2017,29,3);
#234=LOCAL_TIME(7,29,38.,#235);
#235=COORDINATED_UNIVERSAL_TIME_OFFSET(0,0,.BEHIND.);
#236=AXIS2_PLACEMENT_3D('placement',#353,#273,#274);
#237=AXIS2_PLACEMENT_3D('',#354,#275,#276);
#238=AXIS2_PLACEMENT_3D('',#357,#277,#278);
#239=AXIS2_PLACEMENT_3D('',#359,#279,#280);
#240=AXIS2_PLACEMENT_3D('',#361,#281,#282);
#241=AXIS2_PLACEMENT_3D('',#363,#283,#284);
#242=AXIS2_PLACEMENT_3D('',#364,#285,#286);
#243=AXIS2_PLACEMENT_3D('',#366,#287,#288);
#244=AXIS2_PLACEMENT_3D('',#367,#289,#290);
#245=AXIS2_PLACEMENT_3D('',#368,#291,#292);
#246=AXIS2_PLACEMENT_3D('',#372,#294,#295);
#247=AXIS2_PLACEMENT_3D('',#374,#296,#297);
#248=AXIS2_PLACEMENT_3D('',#375,#298,#299);
#249=AXIS2_PLACEMENT_3D('',#376,#300,#301);
#250=AXIS2_PLACEMENT_3D('',#379,#302,#303);
#251=AXIS2_PLACEMENT_3D('',#380,#304,#305);
#252=AXIS2_PLACEMENT_3D('',#382,#307,#308);
#253=AXIS2_PLACEMENT_3D('',#384,#309,#310);
#254=AXIS2_PLACEMENT_3D('',#386,#311,#312);
#255=AXIS2_PLACEMENT_3D('',#388,#313,#314);
#256=AXIS2_PLACEMENT_3D('',#389,#315,#316);
#257=AXIS2_PLACEMENT_3D('',#390,#317,#318);
#258=AXIS2_PLACEMENT_3D('',#394,#320,#321);
#259=AXIS2_PLACEMENT_3D('',#395,#322,#323);
#260=AXIS2_PLACEMENT_3D('',#396,#324,#325);
#261=AXIS2_PLACEMENT_3D('',#399,#326,#327);
#262=AXIS2_PLACEMENT_3D('',#400,#328,#329);
#263=AXIS2_PLACEMENT_3D('',#402,#331,#332);
#264=AXIS2_PLACEMENT_3D('',#405,#333,#334);
#265=AXIS2_PLACEMENT_3D('',#406,#335,#336);
#266=AXIS2_PLACEMENT_3D('',#408,#338,#339);
#267=AXIS2_PLACEMENT_3D('',#411,#340,#341);
#268=AXIS2_PLACEMENT_3D('',#412,#342,#343);
#269=AXIS2_PLACEMENT_3D('',#413,#344,#345);
#270=AXIS2_PLACEMENT_3D('',#417,#347,#348);
#271=AXIS2_PLACEMENT_3D('',#418,#349,#350);
#272=AXIS2_PLACEMENT_3D('',#419,#351,#352);
#273=DIRECTION('axis',(0.,0.,1.));
#274=DIRECTION('refdir',(1.,0.,0.));
#275=DIRECTION('center_axis',(1.,0.,0.));
#276=DIRECTION('ref_axis',(0.,0.,-1.));
#277=DIRECTION('center_axis',(1.,0.,0.));
#278=DIRECTION('ref_axis',(0.,-1.,3.06161699786838E-17));
#279=DIRECTION('center_axis',(0.,-1.,-1.22464679914735E-16));
#280=DIRECTION('ref_axis',(0.,-1.22464679914735E-16,1.));
#281=DIRECTION('center_axis',(-1.,0.,0.));
#282=DIRECTION('ref_axis',(0.,-1.,1.83697019872103E-16));
#283=DIRECTION('center_axis',(-1.,0.,0.));
#284=DIRECTION('ref_axis',(0.,-1.,1.83697019872103E-16));
#285=DIRECTION('center_axis',(-1.,0.,0.));
#286=DIRECTION('ref_axis',(0.,-1.,1.83697019872103E-16));
#287=DIRECTION('center_axis',(1.,0.,0.));
#288=DIRECTION('ref_axis',(0.,-1.,3.06161699786838E-17));
#289=DIRECTION('center_axis',(1.,0.,0.));
#290=DIRECTION('ref_axis',(0.,-1.,3.06161699786838E-17));
#291=DIRECTION('center_axis',(-1.,0.,0.));
#292=DIRECTION('ref_axis',(0.,1.,0.));
#293=DIRECTION('',(-0.25881904510252,-0.965925826289068,-1.18291797137867E-16));
#294=DIRECTION('center_axis',(-1.,0.,0.));
#295=DIRECTION('ref_axis',(0.,-1.,3.06161699786838E-17));
#296=DIRECTION('center_axis',(-1.,0.,0.));
#297=DIRECTION('ref_axis',(0.,-1.,3.06161699786838E-17));
#298=DIRECTION('center_axis',(-1.,0.,0.));
#299=DIRECTION('ref_axis',(0.,-1.,3.06161699786838E-17));
#300=DIRECTION('center_axis',(1.,0.,0.));
#301=DIRECTION('ref_axis',(0.,1.,0.));
#302=DIRECTION('center_axis',(1.,0.,0.));
#303=DIRECTION('ref_axis',(0.,0.,-1.));
#304=DIRECTION('center_axis',(1.,0.,0.));
#305=DIRECTION('ref_axis',(0.,0.,-1.));
#306=DIRECTION('',(-1.,0.,0.));
#307=DIRECTION('center_axis',(1.,0.,0.));
#308=DIRECTION('ref_axis',(0.,0.,-1.));
#309=DIRECTION('center_axis',(0.,-1.,-1.22464679914735E-16));
#310=DIRECTION('ref_axis',(0.,-1.22464679914735E-16,1.));
#311=DIRECTION('center_axis',(1.,0.,0.));
#312=DIRECTION('ref_axis',(0.,-1.,1.83697019872103E-16));
#313=DIRECTION('center_axis',(1.,0.,0.));
#314=DIRECTION('ref_axis',(0.,-1.,1.83697019872103E-16));
#315=DIRECTION('center_axis',(1.,0.,0.));
#316=DIRECTION('ref_axis',(0.,-1.,1.83697019872103E-16));
#317=DIRECTION('center_axis',(1.,0.,0.));
#318=DIRECTION('ref_axis',(0.,1.,0.));
#319=DIRECTION('',(-1.,0.,0.));
#320=DIRECTION('center_axis',(1.,0.,0.));
#321=DIRECTION('ref_axis',(0.,0.,-1.));
#322=DIRECTION('center_axis',(1.,0.,0.));
#323=DIRECTION('ref_axis',(0.,0.,-1.));
#324=DIRECTION('center_axis',(1.,0.,0.));
#325=DIRECTION('ref_axis',(0.,1.,0.));
#326=DIRECTION('center_axis',(1.,0.,0.));
#327=DIRECTION('ref_axis',(0.,0.,-1.));
#328=DIRECTION('center_axis',(1.,0.,0.));
#329=DIRECTION('ref_axis',(0.,0.,-1.));
#330=DIRECTION('',(-0.258819045102517,0.965925826289069,1.18291797137867E-16));
#331=DIRECTION('center_axis',(1.,0.,0.));
#332=DIRECTION('ref_axis',(0.,1.,0.));
#333=DIRECTION('center_axis',(1.,0.,0.));
#334=DIRECTION('ref_axis',(0.,0.,-1.));
#335=DIRECTION('center_axis',(1.,0.,0.));
#336=DIRECTION('ref_axis',(0.,0.,-1.));
#337=DIRECTION('',(-1.,0.,0.));
#338=DIRECTION('center_axis',(1.,0.,0.));
#339=DIRECTION('ref_axis',(0.,0.,-1.));
#340=DIRECTION('center_axis',(1.,0.,0.));
#341=DIRECTION('ref_axis',(0.,0.,-1.));
#342=DIRECTION('center_axis',(1.,0.,0.));
#343=DIRECTION('ref_axis',(0.,0.,-1.));
#344=DIRECTION('center_axis',(1.,0.,0.));
#345=DIRECTION('ref_axis',(0.,1.,0.));
#346=DIRECTION('',(-1.,0.,0.));
#347=DIRECTION('center_axis',(1.,0.,0.));
#348=DIRECTION('ref_axis',(0.,0.,-1.));
#349=DIRECTION('center_axis',(1.,0.,0.));
#350=DIRECTION('ref_axis',(0.,0.,-1.));
#351=DIRECTION('center_axis',(-1.,0.,0.));
#352=DIRECTION('ref_axis',(0.,0.,1.));
#353=CARTESIAN_POINT('',(0.,0.,0.));
#354=CARTESIAN_POINT('Origin',(5.14783417003246,0.,0.));
#355=CARTESIAN_POINT('',(4.66487125688792,19.4205904774488,-1.18916819828796E-15));
#356=CARTESIAN_POINT('',(4.66487125688792,-2.37833639657592E-15,19.4205904774488));
#357=CARTESIAN_POINT('Origin',(4.66487125688792,0.,-2.9729204957199E-15));
#358=CARTESIAN_POINT('',(5.14783417003246,-2.33295215237571E-15,19.05));
#359=CARTESIAN_POINT('Origin',(5.14783417003246,-2.39418449233308E-15,19.55));
#360=CARTESIAN_POINT('',(5.14783417003246,19.05,-5.83238038093927E-15));
#361=CARTESIAN_POINT('Origin',(5.14783417003246,0.,0.));
#362=CARTESIAN_POINT('',(5.14783417003246,-19.05,-2.33295215237571E-15));
#363=CARTESIAN_POINT('Origin',(5.14783417003246,0.,0.));
#364=CARTESIAN_POINT('Origin',(5.14783417003246,0.,0.));
#365=CARTESIAN_POINT('',(4.66487125688793,-19.4205904774487,-2.37833639657592E-15));
#366=CARTESIAN_POINT('Origin',(4.66487125688792,0.,-2.9729204957199E-15));
#367=CARTESIAN_POINT('Origin',(4.66487125688792,0.,-2.9729204957199E-15));
#368=CARTESIAN_POINT('Origin',(3.63208533802149,0.,0.));
#369=CARTESIAN_POINT('',(2.59929941915505,-27.1294095225513,-3.32239445345501E-15));
#370=CARTESIAN_POINT('',(3.63208533802149,-23.275,-2.85036542501546E-15));
#371=CARTESIAN_POINT('',(2.59929941915505,27.1294095225513,-8.30598613363753E-15));
#372=CARTESIAN_POINT('Origin',(2.59929941915505,0.,-4.15299306681877E-15));
#373=CARTESIAN_POINT('',(2.59929941915505,-3.32239445345501E-15,27.1294095225513));
#374=CARTESIAN_POINT('Origin',(2.59929941915505,0.,-4.15299306681877E-15));
#375=CARTESIAN_POINT('Origin',(2.59929941915505,0.,-4.15299306681877E-15));
#376=CARTESIAN_POINT('Origin',(160.,0.,0.));
#377=CARTESIAN_POINT('',(315.235829323957,19.05,0.));
#378=CARTESIAN_POINT('',(315.235829323957,-19.05,-2.33295215237571E-15));
#379=CARTESIAN_POINT('Origin',(315.235829323957,0.,0.));
#380=CARTESIAN_POINT('Origin',(315.235829323957,0.,0.));
#381=CARTESIAN_POINT('',(160.,-19.05,-2.33295215237571E-15));
#382=CARTESIAN_POINT('Origin',(2.11633650601052,0.,0.));
#383=CARTESIAN_POINT('',(2.11633650601052,-3.36777869765522E-15,27.5));
#384=CARTESIAN_POINT('Origin',(2.11633650601052,-3.30654635769785E-15,27.));
#385=CARTESIAN_POINT('',(2.11633650601052,-27.5,-3.36777869765522E-15));
#386=CARTESIAN_POINT('Origin',(2.11633650601052,0.,0.));
#387=CARTESIAN_POINT('',(2.11633650601052,27.5,-1.68388934882761E-15));
#388=CARTESIAN_POINT('Origin',(2.11633650601052,0.,0.));
#389=CARTESIAN_POINT('Origin',(2.11633650601052,0.,0.));
#390=CARTESIAN_POINT('Origin',(1.25,0.,0.));
#391=CARTESIAN_POINT('',(0.,-27.5,-3.36777869765522E-15));
#392=CARTESIAN_POINT('',(1.25,-27.5,-3.36777869765522E-15));
#393=CARTESIAN_POINT('',(0.,27.5,0.));
#394=CARTESIAN_POINT('Origin',(0.,0.,0.));
#395=CARTESIAN_POINT('Origin',(0.,0.,0.));
#396=CARTESIAN_POINT('Origin',(316.367914661979,0.,0.));
#397=CARTESIAN_POINT('',(317.5,27.5,0.));
#398=CARTESIAN_POINT('',(317.5,-27.5,-3.36777869765522E-15));
#399=CARTESIAN_POINT('Origin',(317.5,0.,0.));
#400=CARTESIAN_POINT('Origin',(317.5,0.,0.));
#401=CARTESIAN_POINT('',(316.367914661979,-23.275,-2.85036542501547E-15));
#402=CARTESIAN_POINT('Origin',(318.75,0.,0.));
#403=CARTESIAN_POINT('',(320.,27.5,0.));
#404=CARTESIAN_POINT('',(320.,-27.5,-3.36777869765522E-15));
#405=CARTESIAN_POINT('Origin',(320.,0.,0.));
#406=CARTESIAN_POINT('Origin',(320.,0.,0.));
#407=CARTESIAN_POINT('',(318.75,-27.5,-3.36777869765522E-15));
#408=CARTESIAN_POINT('Origin',(320.,17.5000000000001,0.));
#409=CARTESIAN_POINT('',(320.,17.5000000000001,0.));
#410=CARTESIAN_POINT('',(320.,-17.5,-2.14313189850787E-15));
#411=CARTESIAN_POINT('Origin',(320.,0.,0.));
#412=CARTESIAN_POINT('Origin',(320.,0.,0.));
#413=CARTESIAN_POINT('Origin',(160.,0.,0.));
#414=CARTESIAN_POINT('',(0.,-17.5,-2.14313189850787E-15));
#415=CARTESIAN_POINT('',(160.,-17.5,-2.14313189850787E-15));
#416=CARTESIAN_POINT('',(4.93038065763132E-31,17.5,0.));
#417=CARTESIAN_POINT('Origin',(4.93038065763132E-31,0.,0.));
#418=CARTESIAN_POINT('Origin',(4.93038065763132E-31,0.,0.));
#419=CARTESIAN_POINT('Origin',(0.,27.5,0.));
#420=UNCERTAINTY_MEASURE_WITH_UNIT(LENGTH_MEASURE(0.01),#424,
'DISTANCE_ACCURACY_VALUE',
'Maximum model space distance between geometric entities at asserted c
onnectivities');
#421=UNCERTAINTY_MEASURE_WITH_UNIT(LENGTH_MEASURE(0.01),#424,
'DISTANCE_ACCURACY_VALUE',
'Maximum model space distance between geometric entities at asserted c
onnectivities');
#422=(
GEOMETRIC_REPRESENTATION_CONTEXT(3)
GLOBAL_UNCERTAINTY_ASSIGNED_CONTEXT((#420))
GLOBAL_UNIT_ASSIGNED_CONTEXT((#424,#426,#427))
REPRESENTATION_CONTEXT('','3D')
);
#423=(
GEOMETRIC_REPRESENTATION_CONTEXT(3)
GLOBAL_UNCERTAINTY_ASSIGNED_CONTEXT((#421))
GLOBAL_UNIT_ASSIGNED_CONTEXT((#424,#426,#427))
REPRESENTATION_CONTEXT('','3D')
);
#424=(
LENGTH_UNIT()
NAMED_UNIT(*)
SI_UNIT(.MILLI.,.METRE.)
);
#425=(
LENGTH_UNIT()
NAMED_UNIT(*)
SI_UNIT(.CENTI.,.METRE.)
);
#426=(
NAMED_UNIT(*)
PLANE_ANGLE_UNIT()
SI_UNIT($,.RADIAN.)
);
#427=(
NAMED_UNIT(*)
SI_UNIT($,.STERADIAN.)
SOLID_ANGLE_UNIT()
);
#428=SHAPE_DEFINITION_REPRESENTATION(#429,#430);
#429=PRODUCT_DEFINITION_SHAPE('',$,#432);
#430=SHAPE_REPRESENTATION('',(#236),#422);
#431=PRODUCT_DEFINITION_CONTEXT('part definition',#436,'design');
#432=PRODUCT_DEFINITION('FL-SCL40KF','FL-SCL40KF',#433,#431);
#433=PRODUCT_DEFINITION_FORMATION('',$,#438);
#434=PRODUCT_RELATED_PRODUCT_CATEGORY('FL-SCL40KF','FL-SCL40KF',(#438));
#435=APPLICATION_PROTOCOL_DEFINITION('international standard',
'automotive_design',2009,#436);
#436=APPLICATION_CONTEXT(
'Core Data for Automotive Mechanical Design Process');
#437=PRODUCT_CONTEXT('part definition',#436,'mechanical');
#438=PRODUCT('FL-SCL40KF','FL-SCL40KF',$,(#437));
#439=PRESENTATION_STYLE_ASSIGNMENT((#440));
#440=SURFACE_STYLE_USAGE(.BOTH.,#443);
#441=SURFACE_STYLE_RENDERING_WITH_PROPERTIES($,#447,(#442));
#442=SURFACE_STYLE_TRANSPARENT(1.);
#443=SURFACE_SIDE_STYLE('',(#444,#441));
#444=SURFACE_STYLE_FILL_AREA(#445);
#445=FILL_AREA_STYLE('',(#446));
#446=FILL_AREA_STYLE_COLOUR('',#447);
#447=COLOUR_RGB('',0.745098039215686,0.737254901960784,0.729411764705882);
ENDSEC;
END-ISO-10303-21;
