ISO-10303-21;
HEADER;
/* Generated by software containing ST-Developer
 * from STEP Tools, Inc. (www.steptools.com) 
 */

FILE_DESCRIPTION(
/* description */ (''),
/* implementation_level */ '2;1');

FILE_NAME(
/* name */ 
'G:\\FLANGES & FITTINGS\\Full Nipples\\Step files\\FL-SCL25KF.stp',
/* time_stamp */ '2018-08-24T08:51:55+01:00',
/* author */ ('paul'),
/* organization */ (''),
/* preprocessor_version */ 'ST-DEVELOPER v17.2',
/* originating_system */ 'Autodesk Inventor 2019',
/* authorisation */ '');

FILE_SCHEMA (('AUTOMOTIVE_DESIGN { 1 0 10303 214 3 1 1 }'));
ENDSEC;

DATA;
#10=MECHANICAL_DESIGN_GEOMETRIC_PRESENTATION_REPRESENTATION('',(#13),#441);
#11=SHAPE_REPRESENTATION_RELATIONSHIP('SRR','None',#448,#12);
#12=ADVANCED_BREP_SHAPE_REPRESENTATION('',(#14),#440);
#13=STYLED_ITEM('',(#457),#14);
#14=MANIFOLD_SOLID_BREP('Solid1',#231);
#15=FACE_BOUND('',#43,.T.);
#16=FACE_BOUND('',#46,.T.);
#17=FACE_BOUND('',#49,.T.);
#18=FACE_BOUND('',#52,.T.);
#19=PLANE('',#268);
#20=PLANE('',#274);
#21=PLANE('',#280);
#22=PLANE('',#286);
#23=CONICAL_SURFACE('',#256,16.35,1.30899693899575);
#24=CONICAL_SURFACE('',#262,16.35,1.30899693899577);
#25=FACE_OUTER_BOUND('',#37,.T.);
#26=FACE_OUTER_BOUND('',#38,.T.);
#27=FACE_OUTER_BOUND('',#39,.T.);
#28=FACE_OUTER_BOUND('',#40,.T.);
#29=FACE_OUTER_BOUND('',#41,.T.);
#30=FACE_OUTER_BOUND('',#42,.T.);
#31=FACE_OUTER_BOUND('',#44,.T.);
#32=FACE_OUTER_BOUND('',#45,.T.);
#33=FACE_OUTER_BOUND('',#47,.T.);
#34=FACE_OUTER_BOUND('',#48,.T.);
#35=FACE_OUTER_BOUND('',#50,.T.);
#36=FACE_OUTER_BOUND('',#51,.T.);
#37=EDGE_LOOP('',(#149,#150,#151,#152,#153,#154));
#38=EDGE_LOOP('',(#155,#156,#157,#158,#159,#160));
#39=EDGE_LOOP('',(#161,#162,#163,#164,#165,#166));
#40=EDGE_LOOP('',(#167,#168,#169,#170,#171,#172));
#41=EDGE_LOOP('',(#173,#174,#175,#176,#177,#178));
#42=EDGE_LOOP('',(#179,#180));
#43=EDGE_LOOP('',(#181,#182));
#44=EDGE_LOOP('',(#183,#184,#185,#186,#187,#188));
#45=EDGE_LOOP('',(#189,#190));
#46=EDGE_LOOP('',(#191,#192));
#47=EDGE_LOOP('',(#193,#194,#195,#196,#197,#198));
#48=EDGE_LOOP('',(#199,#200));
#49=EDGE_LOOP('',(#201,#202));
#50=EDGE_LOOP('',(#203,#204,#205,#206,#207,#208));
#51=EDGE_LOOP('',(#209,#210));
#52=EDGE_LOOP('',(#211,#212));
#53=LINE('',#376,#61);
#54=LINE('',#385,#62);
#55=LINE('',#391,#63);
#56=LINE('',#397,#64);
#57=LINE('',#403,#65);
#58=LINE('',#411,#66);
#59=LINE('',#422,#67);
#60=LINE('',#433,#68);
#61=VECTOR('',#295,20.);
#62=VECTOR('',#306,16.35);
#63=VECTOR('',#313,12.7);
#64=VECTOR('',#320,16.35);
#65=VECTOR('',#327,20.);
#66=VECTOR('',#336,13.1);
#67=VECTOR('',#349,11.);
#68=VECTOR('',#362,13.1);
#69=CIRCLE('',#252,20.);
#70=CIRCLE('',#253,20.);
#71=CIRCLE('',#254,20.);
#72=CIRCLE('',#255,20.);
#73=CIRCLE('',#257,12.7);
#74=CIRCLE('',#258,12.7);
#75=CIRCLE('',#260,12.7);
#76=CIRCLE('',#261,12.7);
#77=CIRCLE('',#263,20.);
#78=CIRCLE('',#264,20.);
#79=CIRCLE('',#266,20.);
#80=CIRCLE('',#267,20.);
#81=CIRCLE('',#269,13.1);
#82=CIRCLE('',#270,13.1);
#83=CIRCLE('',#272,13.1);
#84=CIRCLE('',#273,13.1);
#85=CIRCLE('',#275,11.0000000000001);
#86=CIRCLE('',#276,11.0000000000001);
#87=CIRCLE('',#278,11.);
#88=CIRCLE('',#279,11.);
#89=CIRCLE('',#281,13.1);
#90=CIRCLE('',#282,13.1);
#91=CIRCLE('',#284,13.1);
#92=CIRCLE('',#285,13.1);
#93=VERTEX_POINT('',#371);
#94=VERTEX_POINT('',#372);
#95=VERTEX_POINT('',#375);
#96=VERTEX_POINT('',#377);
#97=VERTEX_POINT('',#381);
#98=VERTEX_POINT('',#382);
#99=VERTEX_POINT('',#387);
#100=VERTEX_POINT('',#388);
#101=VERTEX_POINT('',#393);
#102=VERTEX_POINT('',#394);
#103=VERTEX_POINT('',#399);
#104=VERTEX_POINT('',#400);
#105=VERTEX_POINT('',#405);
#106=VERTEX_POINT('',#406);
#107=VERTEX_POINT('',#410);
#108=VERTEX_POINT('',#412);
#109=VERTEX_POINT('',#416);
#110=VERTEX_POINT('',#417);
#111=VERTEX_POINT('',#421);
#112=VERTEX_POINT('',#423);
#113=VERTEX_POINT('',#427);
#114=VERTEX_POINT('',#428);
#115=VERTEX_POINT('',#432);
#116=VERTEX_POINT('',#434);
#117=EDGE_CURVE('',#93,#94,#69,.T.);
#118=EDGE_CURVE('',#94,#93,#70,.T.);
#119=EDGE_CURVE('',#94,#95,#53,.T.);
#120=EDGE_CURVE('',#95,#96,#71,.T.);
#121=EDGE_CURVE('',#96,#95,#72,.T.);
#122=EDGE_CURVE('',#97,#98,#73,.T.);
#123=EDGE_CURVE('',#98,#97,#74,.T.);
#124=EDGE_CURVE('',#98,#94,#54,.T.);
#125=EDGE_CURVE('',#99,#100,#75,.T.);
#126=EDGE_CURVE('',#100,#99,#76,.T.);
#127=EDGE_CURVE('',#100,#98,#55,.T.);
#128=EDGE_CURVE('',#101,#102,#77,.T.);
#129=EDGE_CURVE('',#102,#101,#78,.T.);
#130=EDGE_CURVE('',#102,#100,#56,.T.);
#131=EDGE_CURVE('',#103,#104,#79,.T.);
#132=EDGE_CURVE('',#104,#103,#80,.T.);
#133=EDGE_CURVE('',#104,#102,#57,.T.);
#134=EDGE_CURVE('',#105,#106,#81,.T.);
#135=EDGE_CURVE('',#106,#105,#82,.T.);
#136=EDGE_CURVE('',#106,#107,#58,.T.);
#137=EDGE_CURVE('',#108,#107,#83,.T.);
#138=EDGE_CURVE('',#107,#108,#84,.T.);
#139=EDGE_CURVE('',#109,#110,#85,.T.);
#140=EDGE_CURVE('',#110,#109,#86,.T.);
#141=EDGE_CURVE('',#110,#111,#59,.T.);
#142=EDGE_CURVE('',#112,#111,#87,.T.);
#143=EDGE_CURVE('',#111,#112,#88,.T.);
#144=EDGE_CURVE('',#113,#114,#89,.T.);
#145=EDGE_CURVE('',#114,#113,#90,.T.);
#146=EDGE_CURVE('',#114,#115,#60,.T.);
#147=EDGE_CURVE('',#116,#115,#91,.T.);
#148=EDGE_CURVE('',#115,#116,#92,.T.);
#149=ORIENTED_EDGE('',*,*,#117,.F.);
#150=ORIENTED_EDGE('',*,*,#118,.F.);
#151=ORIENTED_EDGE('',*,*,#119,.T.);
#152=ORIENTED_EDGE('',*,*,#120,.T.);
#153=ORIENTED_EDGE('',*,*,#121,.T.);
#154=ORIENTED_EDGE('',*,*,#119,.F.);
#155=ORIENTED_EDGE('',*,*,#122,.F.);
#156=ORIENTED_EDGE('',*,*,#123,.F.);
#157=ORIENTED_EDGE('',*,*,#124,.T.);
#158=ORIENTED_EDGE('',*,*,#118,.T.);
#159=ORIENTED_EDGE('',*,*,#117,.T.);
#160=ORIENTED_EDGE('',*,*,#124,.F.);
#161=ORIENTED_EDGE('',*,*,#125,.F.);
#162=ORIENTED_EDGE('',*,*,#126,.F.);
#163=ORIENTED_EDGE('',*,*,#127,.T.);
#164=ORIENTED_EDGE('',*,*,#123,.T.);
#165=ORIENTED_EDGE('',*,*,#122,.T.);
#166=ORIENTED_EDGE('',*,*,#127,.F.);
#167=ORIENTED_EDGE('',*,*,#128,.F.);
#168=ORIENTED_EDGE('',*,*,#129,.F.);
#169=ORIENTED_EDGE('',*,*,#130,.T.);
#170=ORIENTED_EDGE('',*,*,#126,.T.);
#171=ORIENTED_EDGE('',*,*,#125,.T.);
#172=ORIENTED_EDGE('',*,*,#130,.F.);
#173=ORIENTED_EDGE('',*,*,#131,.F.);
#174=ORIENTED_EDGE('',*,*,#132,.F.);
#175=ORIENTED_EDGE('',*,*,#133,.T.);
#176=ORIENTED_EDGE('',*,*,#129,.T.);
#177=ORIENTED_EDGE('',*,*,#128,.T.);
#178=ORIENTED_EDGE('',*,*,#133,.F.);
#179=ORIENTED_EDGE('',*,*,#131,.T.);
#180=ORIENTED_EDGE('',*,*,#132,.T.);
#181=ORIENTED_EDGE('',*,*,#134,.F.);
#182=ORIENTED_EDGE('',*,*,#135,.F.);
#183=ORIENTED_EDGE('',*,*,#134,.T.);
#184=ORIENTED_EDGE('',*,*,#136,.T.);
#185=ORIENTED_EDGE('',*,*,#137,.F.);
#186=ORIENTED_EDGE('',*,*,#138,.F.);
#187=ORIENTED_EDGE('',*,*,#136,.F.);
#188=ORIENTED_EDGE('',*,*,#135,.T.);
#189=ORIENTED_EDGE('',*,*,#137,.T.);
#190=ORIENTED_EDGE('',*,*,#138,.T.);
#191=ORIENTED_EDGE('',*,*,#139,.F.);
#192=ORIENTED_EDGE('',*,*,#140,.F.);
#193=ORIENTED_EDGE('',*,*,#139,.T.);
#194=ORIENTED_EDGE('',*,*,#141,.T.);
#195=ORIENTED_EDGE('',*,*,#142,.F.);
#196=ORIENTED_EDGE('',*,*,#143,.F.);
#197=ORIENTED_EDGE('',*,*,#141,.F.);
#198=ORIENTED_EDGE('',*,*,#140,.T.);
#199=ORIENTED_EDGE('',*,*,#144,.F.);
#200=ORIENTED_EDGE('',*,*,#145,.F.);
#201=ORIENTED_EDGE('',*,*,#142,.T.);
#202=ORIENTED_EDGE('',*,*,#143,.T.);
#203=ORIENTED_EDGE('',*,*,#144,.T.);
#204=ORIENTED_EDGE('',*,*,#146,.T.);
#205=ORIENTED_EDGE('',*,*,#147,.F.);
#206=ORIENTED_EDGE('',*,*,#148,.F.);
#207=ORIENTED_EDGE('',*,*,#146,.F.);
#208=ORIENTED_EDGE('',*,*,#145,.T.);
#209=ORIENTED_EDGE('',*,*,#121,.F.);
#210=ORIENTED_EDGE('',*,*,#120,.F.);
#211=ORIENTED_EDGE('',*,*,#147,.T.);
#212=ORIENTED_EDGE('',*,*,#148,.T.);
#213=CYLINDRICAL_SURFACE('',#251,20.);
#214=CYLINDRICAL_SURFACE('',#259,12.7);
#215=CYLINDRICAL_SURFACE('',#265,20.);
#216=CYLINDRICAL_SURFACE('',#271,13.1);
#217=CYLINDRICAL_SURFACE('',#277,11.);
#218=CYLINDRICAL_SURFACE('',#283,13.1);
#219=ADVANCED_FACE('',(#25),#213,.T.);
#220=ADVANCED_FACE('',(#26),#23,.T.);
#221=ADVANCED_FACE('',(#27),#214,.T.);
#222=ADVANCED_FACE('',(#28),#24,.T.);
#223=ADVANCED_FACE('',(#29),#215,.T.);
#224=ADVANCED_FACE('',(#30,#15),#19,.T.);
#225=ADVANCED_FACE('',(#31),#216,.F.);
#226=ADVANCED_FACE('',(#32,#16),#20,.T.);
#227=ADVANCED_FACE('',(#33),#217,.F.);
#228=ADVANCED_FACE('',(#34,#17),#21,.T.);
#229=ADVANCED_FACE('',(#35),#218,.F.);
#230=ADVANCED_FACE('',(#36,#18),#22,.T.);
#231=CLOSED_SHELL('',(#219,#220,#221,#222,#223,#224,#225,#226,#227,#228,
#229,#230));
#232=DERIVED_UNIT_ELEMENT(#234,1.);
#233=DERIVED_UNIT_ELEMENT(#443,3.);
#234=(
MASS_UNIT()
NAMED_UNIT(*)
SI_UNIT($,.GRAM.)
);
#235=DERIVED_UNIT((#232,#233));
#236=MEASURE_REPRESENTATION_ITEM('density measure',
POSITIVE_RATIO_MEASURE(8.),#235);
#237=PROPERTY_DEFINITION_REPRESENTATION(#242,#239);
#238=PROPERTY_DEFINITION_REPRESENTATION(#243,#240);
#239=REPRESENTATION('material name',(#241),#440);
#240=REPRESENTATION('density',(#236),#440);
#241=DESCRIPTIVE_REPRESENTATION_ITEM('Stainless Steel AISI 304',
'Stainless Steel AISI 304');
#242=PROPERTY_DEFINITION('material property','material name',#450);
#243=PROPERTY_DEFINITION('material property','density of part',#450);
#244=DATE_TIME_ROLE('creation_date');
#245=APPLIED_DATE_AND_TIME_ASSIGNMENT(#246,#244,(#450));
#246=DATE_AND_TIME(#247,#248);
#247=CALENDAR_DATE(2014,18,11);
#248=LOCAL_TIME(10,34,47.,#249);
#249=COORDINATED_UNIVERSAL_TIME_OFFSET(0,0,.BEHIND.);
#250=AXIS2_PLACEMENT_3D('placement',#369,#287,#288);
#251=AXIS2_PLACEMENT_3D('',#370,#289,#290);
#252=AXIS2_PLACEMENT_3D('',#373,#291,#292);
#253=AXIS2_PLACEMENT_3D('',#374,#293,#294);
#254=AXIS2_PLACEMENT_3D('',#378,#296,#297);
#255=AXIS2_PLACEMENT_3D('',#379,#298,#299);
#256=AXIS2_PLACEMENT_3D('',#380,#300,#301);
#257=AXIS2_PLACEMENT_3D('',#383,#302,#303);
#258=AXIS2_PLACEMENT_3D('',#384,#304,#305);
#259=AXIS2_PLACEMENT_3D('',#386,#307,#308);
#260=AXIS2_PLACEMENT_3D('',#389,#309,#310);
#261=AXIS2_PLACEMENT_3D('',#390,#311,#312);
#262=AXIS2_PLACEMENT_3D('',#392,#314,#315);
#263=AXIS2_PLACEMENT_3D('',#395,#316,#317);
#264=AXIS2_PLACEMENT_3D('',#396,#318,#319);
#265=AXIS2_PLACEMENT_3D('',#398,#321,#322);
#266=AXIS2_PLACEMENT_3D('',#401,#323,#324);
#267=AXIS2_PLACEMENT_3D('',#402,#325,#326);
#268=AXIS2_PLACEMENT_3D('',#404,#328,#329);
#269=AXIS2_PLACEMENT_3D('',#407,#330,#331);
#270=AXIS2_PLACEMENT_3D('',#408,#332,#333);
#271=AXIS2_PLACEMENT_3D('',#409,#334,#335);
#272=AXIS2_PLACEMENT_3D('',#413,#337,#338);
#273=AXIS2_PLACEMENT_3D('',#414,#339,#340);
#274=AXIS2_PLACEMENT_3D('',#415,#341,#342);
#275=AXIS2_PLACEMENT_3D('',#418,#343,#344);
#276=AXIS2_PLACEMENT_3D('',#419,#345,#346);
#277=AXIS2_PLACEMENT_3D('',#420,#347,#348);
#278=AXIS2_PLACEMENT_3D('',#424,#350,#351);
#279=AXIS2_PLACEMENT_3D('',#425,#352,#353);
#280=AXIS2_PLACEMENT_3D('',#426,#354,#355);
#281=AXIS2_PLACEMENT_3D('',#429,#356,#357);
#282=AXIS2_PLACEMENT_3D('',#430,#358,#359);
#283=AXIS2_PLACEMENT_3D('',#431,#360,#361);
#284=AXIS2_PLACEMENT_3D('',#435,#363,#364);
#285=AXIS2_PLACEMENT_3D('',#436,#365,#366);
#286=AXIS2_PLACEMENT_3D('',#437,#367,#368);
#287=DIRECTION('axis',(0.,0.,1.));
#288=DIRECTION('refdir',(1.,0.,0.));
#289=DIRECTION('center_axis',(0.,1.,0.));
#290=DIRECTION('ref_axis',(-1.,0.,0.));
#291=DIRECTION('center_axis',(0.,1.,0.));
#292=DIRECTION('ref_axis',(1.,0.,0.));
#293=DIRECTION('center_axis',(0.,1.,0.));
#294=DIRECTION('ref_axis',(1.,0.,0.));
#295=DIRECTION('',(0.,-1.,0.));
#296=DIRECTION('center_axis',(0.,1.,0.));
#297=DIRECTION('ref_axis',(1.,0.,0.));
#298=DIRECTION('center_axis',(0.,1.,0.));
#299=DIRECTION('ref_axis',(1.,0.,0.));
#300=DIRECTION('center_axis',(0.,-1.,0.));
#301=DIRECTION('ref_axis',(-1.,0.,0.));
#302=DIRECTION('center_axis',(0.,1.,0.));
#303=DIRECTION('ref_axis',(1.,0.,0.));
#304=DIRECTION('center_axis',(0.,1.,0.));
#305=DIRECTION('ref_axis',(1.,0.,0.));
#306=DIRECTION('',(0.965925826289068,-0.258819045102521,-1.18291797137867E-16));
#307=DIRECTION('center_axis',(0.,1.,0.));
#308=DIRECTION('ref_axis',(-1.,0.,0.));
#309=DIRECTION('center_axis',(0.,1.,0.));
#310=DIRECTION('ref_axis',(1.,0.,0.));
#311=DIRECTION('center_axis',(0.,1.,0.));
#312=DIRECTION('ref_axis',(1.,0.,0.));
#313=DIRECTION('',(0.,-1.,0.));
#314=DIRECTION('center_axis',(0.,1.,0.));
#315=DIRECTION('ref_axis',(-1.,0.,0.));
#316=DIRECTION('center_axis',(0.,1.,0.));
#317=DIRECTION('ref_axis',(1.,0.,0.));
#318=DIRECTION('center_axis',(0.,1.,0.));
#319=DIRECTION('ref_axis',(1.,0.,0.));
#320=DIRECTION('',(-0.965925826289075,-0.258819045102497,1.18291797137868E-16));
#321=DIRECTION('center_axis',(0.,1.,0.));
#322=DIRECTION('ref_axis',(-1.,0.,0.));
#323=DIRECTION('center_axis',(0.,1.,0.));
#324=DIRECTION('ref_axis',(1.,0.,0.));
#325=DIRECTION('center_axis',(0.,1.,0.));
#326=DIRECTION('ref_axis',(1.,0.,0.));
#327=DIRECTION('',(0.,-1.,0.));
#328=DIRECTION('center_axis',(0.,1.,0.));
#329=DIRECTION('ref_axis',(0.,0.,1.));
#330=DIRECTION('center_axis',(0.,1.,0.));
#331=DIRECTION('ref_axis',(1.,0.,0.));
#332=DIRECTION('center_axis',(0.,1.,0.));
#333=DIRECTION('ref_axis',(1.,0.,0.));
#334=DIRECTION('center_axis',(0.,1.,0.));
#335=DIRECTION('ref_axis',(-1.,0.,0.));
#336=DIRECTION('',(0.,-1.,0.));
#337=DIRECTION('center_axis',(0.,1.,0.));
#338=DIRECTION('ref_axis',(1.,0.,0.));
#339=DIRECTION('center_axis',(0.,1.,0.));
#340=DIRECTION('ref_axis',(1.,0.,0.));
#341=DIRECTION('center_axis',(0.,1.,0.));
#342=DIRECTION('ref_axis',(0.,0.,1.));
#343=DIRECTION('center_axis',(0.,1.,0.));
#344=DIRECTION('ref_axis',(1.,0.,0.));
#345=DIRECTION('center_axis',(0.,1.,0.));
#346=DIRECTION('ref_axis',(1.,0.,0.));
#347=DIRECTION('center_axis',(0.,1.,0.));
#348=DIRECTION('ref_axis',(-1.,0.,0.));
#349=DIRECTION('',(0.,-1.,0.));
#350=DIRECTION('center_axis',(0.,1.,0.));
#351=DIRECTION('ref_axis',(1.,0.,0.));
#352=DIRECTION('center_axis',(0.,1.,0.));
#353=DIRECTION('ref_axis',(1.,0.,0.));
#354=DIRECTION('center_axis',(0.,-1.,0.));
#355=DIRECTION('ref_axis',(0.,0.,-1.));
#356=DIRECTION('center_axis',(0.,1.,0.));
#357=DIRECTION('ref_axis',(1.,0.,0.));
#358=DIRECTION('center_axis',(0.,1.,0.));
#359=DIRECTION('ref_axis',(1.,0.,0.));
#360=DIRECTION('center_axis',(0.,1.,0.));
#361=DIRECTION('ref_axis',(-1.,0.,0.));
#362=DIRECTION('',(0.,-1.,0.));
#363=DIRECTION('center_axis',(0.,1.,0.));
#364=DIRECTION('ref_axis',(1.,0.,0.));
#365=DIRECTION('center_axis',(0.,1.,0.));
#366=DIRECTION('ref_axis',(1.,0.,0.));
#367=DIRECTION('center_axis',(0.,-1.,0.));
#368=DIRECTION('ref_axis',(0.,0.,-1.));
#369=CARTESIAN_POINT('',(0.,0.,0.));
#370=CARTESIAN_POINT('Origin',(0.,1.5,0.));
#371=CARTESIAN_POINT('',(-20.,3.,0.));
#372=CARTESIAN_POINT('',(20.,3.,-2.44929359829471E-15));
#373=CARTESIAN_POINT('Origin',(0.,3.,0.));
#374=CARTESIAN_POINT('Origin',(0.,3.,0.));
#375=CARTESIAN_POINT('',(20.,0.,-2.44929359829471E-15));
#376=CARTESIAN_POINT('',(20.,1.5,-2.44929359829471E-15));
#377=CARTESIAN_POINT('',(-20.,0.,0.));
#378=CARTESIAN_POINT('Origin',(0.,0.,0.));
#379=CARTESIAN_POINT('Origin',(0.,0.,0.));
#380=CARTESIAN_POINT('Origin',(0.,3.9780145523736,0.));
#381=CARTESIAN_POINT('',(-12.7,4.95602910474719,0.));
#382=CARTESIAN_POINT('',(12.7,4.95602910474719,-1.55530143491714E-15));
#383=CARTESIAN_POINT('Origin',(0.,4.95602910474719,0.));
#384=CARTESIAN_POINT('Origin',(0.,4.95602910474719,0.));
#385=CARTESIAN_POINT('',(16.35,3.9780145523736,-2.00229751660592E-15));
#386=CARTESIAN_POINT('Origin',(0.,160.,0.));
#387=CARTESIAN_POINT('',(-12.7,315.043970895253,0.));
#388=CARTESIAN_POINT('',(12.7,315.043970895253,-1.55530143491714E-15));
#389=CARTESIAN_POINT('Origin',(0.,315.043970895253,0.));
#390=CARTESIAN_POINT('Origin',(0.,315.043970895253,0.));
#391=CARTESIAN_POINT('',(12.7,160.,-1.55530143491714E-15));
#392=CARTESIAN_POINT('Origin',(0.,316.021985447626,0.));
#393=CARTESIAN_POINT('',(-20.,317.,0.));
#394=CARTESIAN_POINT('',(20.,317.,-2.44929359829471E-15));
#395=CARTESIAN_POINT('Origin',(0.,317.,0.));
#396=CARTESIAN_POINT('Origin',(0.,317.,0.));
#397=CARTESIAN_POINT('',(16.35,316.021985447626,-2.00229751660592E-15));
#398=CARTESIAN_POINT('Origin',(0.,318.5,0.));
#399=CARTESIAN_POINT('',(-20.,320.,0.));
#400=CARTESIAN_POINT('',(20.,320.,-2.44929359829471E-15));
#401=CARTESIAN_POINT('Origin',(0.,320.,0.));
#402=CARTESIAN_POINT('Origin',(0.,320.,0.));
#403=CARTESIAN_POINT('',(20.,318.5,-2.44929359829471E-15));
#404=CARTESIAN_POINT('Origin',(-13.1,320.,0.));
#405=CARTESIAN_POINT('',(-13.1,320.,0.));
#406=CARTESIAN_POINT('',(13.1,320.,-1.60428730688303E-15));
#407=CARTESIAN_POINT('Origin',(0.,320.,0.));
#408=CARTESIAN_POINT('Origin',(0.,320.,0.));
#409=CARTESIAN_POINT('Origin',(0.,318.75,0.));
#410=CARTESIAN_POINT('',(13.1,317.5,-1.60428730688303E-15));
#411=CARTESIAN_POINT('',(13.1,318.75,-1.60428730688303E-15));
#412=CARTESIAN_POINT('',(-13.1,317.5,0.));
#413=CARTESIAN_POINT('Origin',(0.,317.5,0.));
#414=CARTESIAN_POINT('Origin',(0.,317.5,0.));
#415=CARTESIAN_POINT('Origin',(-11.0000000000001,317.5,0.));
#416=CARTESIAN_POINT('',(-11.0000000000001,317.5,0.));
#417=CARTESIAN_POINT('',(11.,317.5,-1.34711147906209E-15));
#418=CARTESIAN_POINT('Origin',(0.,317.5,0.));
#419=CARTESIAN_POINT('Origin',(0.,317.5,0.));
#420=CARTESIAN_POINT('Origin',(0.,160.,0.));
#421=CARTESIAN_POINT('',(11.,2.50000000000002,-1.34711147906209E-15));
#422=CARTESIAN_POINT('',(11.,160.,-1.34711147906209E-15));
#423=CARTESIAN_POINT('',(-11.,2.5,0.));
#424=CARTESIAN_POINT('Origin',(0.,2.5,0.));
#425=CARTESIAN_POINT('Origin',(0.,2.5,0.));
#426=CARTESIAN_POINT('Origin',(-13.1,2.5,0.));
#427=CARTESIAN_POINT('',(-13.1,2.5,0.));
#428=CARTESIAN_POINT('',(13.1,2.5,-1.60428730688303E-15));
#429=CARTESIAN_POINT('Origin',(0.,2.5,0.));
#430=CARTESIAN_POINT('Origin',(0.,2.5,0.));
#431=CARTESIAN_POINT('Origin',(0.,1.25,0.));
#432=CARTESIAN_POINT('',(13.1,0.,-1.60428730688303E-15));
#433=CARTESIAN_POINT('',(13.1,1.25,-1.60428730688303E-15));
#434=CARTESIAN_POINT('',(-13.1,0.,0.));
#435=CARTESIAN_POINT('Origin',(0.,0.,0.));
#436=CARTESIAN_POINT('Origin',(0.,0.,0.));
#437=CARTESIAN_POINT('Origin',(-20.,0.,0.));
#438=UNCERTAINTY_MEASURE_WITH_UNIT(LENGTH_MEASURE(0.01),#442,
'DISTANCE_ACCURACY_VALUE',
'Maximum model space distance between geometric entities at asserted c
onnectivities');
#439=UNCERTAINTY_MEASURE_WITH_UNIT(LENGTH_MEASURE(0.01),#442,
'DISTANCE_ACCURACY_VALUE',
'Maximum model space distance between geometric entities at asserted c
onnectivities');
#440=(
GEOMETRIC_REPRESENTATION_CONTEXT(3)
GLOBAL_UNCERTAINTY_ASSIGNED_CONTEXT((#438))
GLOBAL_UNIT_ASSIGNED_CONTEXT((#442,#444,#445))
REPRESENTATION_CONTEXT('','3D')
);
#441=(
GEOMETRIC_REPRESENTATION_CONTEXT(3)
GLOBAL_UNCERTAINTY_ASSIGNED_CONTEXT((#439))
GLOBAL_UNIT_ASSIGNED_CONTEXT((#442,#444,#445))
REPRESENTATION_CONTEXT('','3D')
);
#442=(
LENGTH_UNIT()
NAMED_UNIT(*)
SI_UNIT(.MILLI.,.METRE.)
);
#443=(
LENGTH_UNIT()
NAMED_UNIT(*)
SI_UNIT(.CENTI.,.METRE.)
);
#444=(
NAMED_UNIT(*)
PLANE_ANGLE_UNIT()
SI_UNIT($,.RADIAN.)
);
#445=(
NAMED_UNIT(*)
SI_UNIT($,.STERADIAN.)
SOLID_ANGLE_UNIT()
);
#446=SHAPE_DEFINITION_REPRESENTATION(#447,#448);
#447=PRODUCT_DEFINITION_SHAPE('',$,#450);
#448=SHAPE_REPRESENTATION('',(#250),#440);
#449=PRODUCT_DEFINITION_CONTEXT('part definition',#454,'design');
#450=PRODUCT_DEFINITION('FL-SCL25KF','FL-SCL25KF',#451,#449);
#451=PRODUCT_DEFINITION_FORMATION('',$,#456);
#452=PRODUCT_RELATED_PRODUCT_CATEGORY('FL-SCL25KF','FL-SCL25KF',(#456));
#453=APPLICATION_PROTOCOL_DEFINITION('international standard',
'automotive_design',2009,#454);
#454=APPLICATION_CONTEXT(
'Core Data for Automotive Mechanical Design Process');
#455=PRODUCT_CONTEXT('part definition',#454,'mechanical');
#456=PRODUCT('FL-SCL25KF','FL-SCL25KF',$,(#455));
#457=PRESENTATION_STYLE_ASSIGNMENT((#458));
#458=SURFACE_STYLE_USAGE(.BOTH.,#461);
#459=SURFACE_STYLE_RENDERING_WITH_PROPERTIES($,#465,(#460));
#460=SURFACE_STYLE_TRANSPARENT(1.);
#461=SURFACE_SIDE_STYLE('',(#462,#459));
#462=SURFACE_STYLE_FILL_AREA(#463);
#463=FILL_AREA_STYLE('',(#464));
#464=FILL_AREA_STYLE_COLOUR('',#465);
#465=COLOUR_RGB('',0.745098039215686,0.737254901960784,0.729411764705882);
ENDSEC;
END-ISO-10303-21;
