ISO-10303-21;
HEADER;
/* Generated by software containing ST-Developer
 * from STEP Tools, Inc. (www.steptools.com) 
 */

FILE_DESCRIPTION(
/* description */ (''),
/* implementation_level */ '2;1');

FILE_NAME(
/* name */ 
'G:\\FLANGES & FITTINGS\\Full Nipples\\Step files\\FL-SCL16KF.stp',
/* time_stamp */ '2018-08-24T08:46:43+01:00',
/* author */ ('paul'),
/* organization */ (''),
/* preprocessor_version */ 'ST-DEVELOPER v17.2',
/* originating_system */ 'Autodesk Inventor 2019',
/* authorisation */ '');

FILE_SCHEMA (('AUTOMOTIVE_DESIGN { 1 0 10303 214 3 1 1 }'));
ENDSEC;

DATA;
#10=MECHANICAL_DESIGN_GEOMETRIC_PRESENTATION_REPRESENTATION('',(#13),#311);
#11=SHAPE_REPRESENTATION_RELATIONSHIP('SRR','None',#318,#12);
#12=ADVANCED_BREP_SHAPE_REPRESENTATION('',(#14),#310);
#13=STYLED_ITEM('',(#327),#14);
#14=MANIFOLD_SOLID_BREP('Solid1',#161);
#15=FACE_BOUND('',#35,.T.);
#16=FACE_BOUND('',#38,.T.);
#17=PLANE('',#198);
#18=PLANE('',#204);
#19=CONICAL_SURFACE('',#186,12.275,1.30899693899575);
#20=CONICAL_SURFACE('',#192,12.2750000000002,1.30899693899575);
#21=FACE_OUTER_BOUND('',#29,.T.);
#22=FACE_OUTER_BOUND('',#30,.T.);
#23=FACE_OUTER_BOUND('',#31,.T.);
#24=FACE_OUTER_BOUND('',#32,.T.);
#25=FACE_OUTER_BOUND('',#33,.T.);
#26=FACE_OUTER_BOUND('',#34,.T.);
#27=FACE_OUTER_BOUND('',#36,.T.);
#28=FACE_OUTER_BOUND('',#37,.T.);
#29=EDGE_LOOP('',(#105,#106,#107,#108,#109,#110));
#30=EDGE_LOOP('',(#111,#112,#113,#114,#115,#116));
#31=EDGE_LOOP('',(#117,#118,#119,#120,#121,#122));
#32=EDGE_LOOP('',(#123,#124,#125,#126,#127,#128));
#33=EDGE_LOOP('',(#129,#130,#131,#132,#133,#134));
#34=EDGE_LOOP('',(#135,#136));
#35=EDGE_LOOP('',(#137,#138));
#36=EDGE_LOOP('',(#139,#140,#141,#142,#143,#144));
#37=EDGE_LOOP('',(#145,#146));
#38=EDGE_LOOP('',(#147,#148));
#39=LINE('',#268,#45);
#40=LINE('',#277,#46);
#41=LINE('',#283,#47);
#42=LINE('',#289,#48);
#43=LINE('',#295,#49);
#44=LINE('',#303,#50);
#45=VECTOR('',#213,15.);
#46=VECTOR('',#224,12.275);
#47=VECTOR('',#231,9.55);
#48=VECTOR('',#238,12.2750000000002);
#49=VECTOR('',#245,15.0000000000003);
#50=VECTOR('',#254,8.6);
#51=CIRCLE('',#182,15.);
#52=CIRCLE('',#183,15.);
#53=CIRCLE('',#184,15.);
#54=CIRCLE('',#185,15.);
#55=CIRCLE('',#187,9.55);
#56=CIRCLE('',#188,9.55);
#57=CIRCLE('',#190,9.55);
#58=CIRCLE('',#191,9.55);
#59=CIRCLE('',#193,15.0000000000003);
#60=CIRCLE('',#194,15.0000000000003);
#61=CIRCLE('',#196,15.0000000000003);
#62=CIRCLE('',#197,15.0000000000003);
#63=CIRCLE('',#199,8.6);
#64=CIRCLE('',#200,8.6);
#65=CIRCLE('',#202,8.6);
#66=CIRCLE('',#203,8.6);
#67=VERTEX_POINT('',#263);
#68=VERTEX_POINT('',#264);
#69=VERTEX_POINT('',#267);
#70=VERTEX_POINT('',#269);
#71=VERTEX_POINT('',#273);
#72=VERTEX_POINT('',#274);
#73=VERTEX_POINT('',#279);
#74=VERTEX_POINT('',#280);
#75=VERTEX_POINT('',#285);
#76=VERTEX_POINT('',#286);
#77=VERTEX_POINT('',#291);
#78=VERTEX_POINT('',#292);
#79=VERTEX_POINT('',#297);
#80=VERTEX_POINT('',#298);
#81=VERTEX_POINT('',#302);
#82=VERTEX_POINT('',#304);
#83=EDGE_CURVE('',#67,#68,#51,.T.);
#84=EDGE_CURVE('',#68,#67,#52,.T.);
#85=EDGE_CURVE('',#68,#69,#39,.T.);
#86=EDGE_CURVE('',#69,#70,#53,.T.);
#87=EDGE_CURVE('',#70,#69,#54,.T.);
#88=EDGE_CURVE('',#71,#72,#55,.T.);
#89=EDGE_CURVE('',#72,#71,#56,.T.);
#90=EDGE_CURVE('',#72,#68,#40,.T.);
#91=EDGE_CURVE('',#73,#74,#57,.T.);
#92=EDGE_CURVE('',#74,#73,#58,.T.);
#93=EDGE_CURVE('',#74,#72,#41,.T.);
#94=EDGE_CURVE('',#75,#76,#59,.T.);
#95=EDGE_CURVE('',#76,#75,#60,.T.);
#96=EDGE_CURVE('',#76,#74,#42,.T.);
#97=EDGE_CURVE('',#77,#78,#61,.T.);
#98=EDGE_CURVE('',#78,#77,#62,.T.);
#99=EDGE_CURVE('',#78,#76,#43,.T.);
#100=EDGE_CURVE('',#79,#80,#63,.T.);
#101=EDGE_CURVE('',#80,#79,#64,.T.);
#102=EDGE_CURVE('',#80,#81,#44,.T.);
#103=EDGE_CURVE('',#82,#81,#65,.T.);
#104=EDGE_CURVE('',#81,#82,#66,.T.);
#105=ORIENTED_EDGE('',*,*,#83,.F.);
#106=ORIENTED_EDGE('',*,*,#84,.F.);
#107=ORIENTED_EDGE('',*,*,#85,.T.);
#108=ORIENTED_EDGE('',*,*,#86,.T.);
#109=ORIENTED_EDGE('',*,*,#87,.T.);
#110=ORIENTED_EDGE('',*,*,#85,.F.);
#111=ORIENTED_EDGE('',*,*,#88,.F.);
#112=ORIENTED_EDGE('',*,*,#89,.F.);
#113=ORIENTED_EDGE('',*,*,#90,.T.);
#114=ORIENTED_EDGE('',*,*,#84,.T.);
#115=ORIENTED_EDGE('',*,*,#83,.T.);
#116=ORIENTED_EDGE('',*,*,#90,.F.);
#117=ORIENTED_EDGE('',*,*,#91,.F.);
#118=ORIENTED_EDGE('',*,*,#92,.F.);
#119=ORIENTED_EDGE('',*,*,#93,.T.);
#120=ORIENTED_EDGE('',*,*,#89,.T.);
#121=ORIENTED_EDGE('',*,*,#88,.T.);
#122=ORIENTED_EDGE('',*,*,#93,.F.);
#123=ORIENTED_EDGE('',*,*,#94,.F.);
#124=ORIENTED_EDGE('',*,*,#95,.F.);
#125=ORIENTED_EDGE('',*,*,#96,.T.);
#126=ORIENTED_EDGE('',*,*,#92,.T.);
#127=ORIENTED_EDGE('',*,*,#91,.T.);
#128=ORIENTED_EDGE('',*,*,#96,.F.);
#129=ORIENTED_EDGE('',*,*,#97,.F.);
#130=ORIENTED_EDGE('',*,*,#98,.F.);
#131=ORIENTED_EDGE('',*,*,#99,.T.);
#132=ORIENTED_EDGE('',*,*,#95,.T.);
#133=ORIENTED_EDGE('',*,*,#94,.T.);
#134=ORIENTED_EDGE('',*,*,#99,.F.);
#135=ORIENTED_EDGE('',*,*,#97,.T.);
#136=ORIENTED_EDGE('',*,*,#98,.T.);
#137=ORIENTED_EDGE('',*,*,#100,.F.);
#138=ORIENTED_EDGE('',*,*,#101,.F.);
#139=ORIENTED_EDGE('',*,*,#100,.T.);
#140=ORIENTED_EDGE('',*,*,#102,.T.);
#141=ORIENTED_EDGE('',*,*,#103,.F.);
#142=ORIENTED_EDGE('',*,*,#104,.F.);
#143=ORIENTED_EDGE('',*,*,#102,.F.);
#144=ORIENTED_EDGE('',*,*,#101,.T.);
#145=ORIENTED_EDGE('',*,*,#87,.F.);
#146=ORIENTED_EDGE('',*,*,#86,.F.);
#147=ORIENTED_EDGE('',*,*,#103,.T.);
#148=ORIENTED_EDGE('',*,*,#104,.T.);
#149=CYLINDRICAL_SURFACE('',#181,15.);
#150=CYLINDRICAL_SURFACE('',#189,9.55);
#151=CYLINDRICAL_SURFACE('',#195,15.0000000000003);
#152=CYLINDRICAL_SURFACE('',#201,8.6);
#153=ADVANCED_FACE('',(#21),#149,.T.);
#154=ADVANCED_FACE('',(#22),#19,.T.);
#155=ADVANCED_FACE('',(#23),#150,.T.);
#156=ADVANCED_FACE('',(#24),#20,.T.);
#157=ADVANCED_FACE('',(#25),#151,.T.);
#158=ADVANCED_FACE('',(#26,#15),#17,.T.);
#159=ADVANCED_FACE('',(#27),#152,.F.);
#160=ADVANCED_FACE('',(#28,#16),#18,.T.);
#161=CLOSED_SHELL('',(#153,#154,#155,#156,#157,#158,#159,#160));
#162=DERIVED_UNIT_ELEMENT(#164,1.);
#163=DERIVED_UNIT_ELEMENT(#313,3.);
#164=(
MASS_UNIT()
NAMED_UNIT(*)
SI_UNIT($,.GRAM.)
);
#165=DERIVED_UNIT((#162,#163));
#166=MEASURE_REPRESENTATION_ITEM('density measure',
POSITIVE_RATIO_MEASURE(8.),#165);
#167=PROPERTY_DEFINITION_REPRESENTATION(#172,#169);
#168=PROPERTY_DEFINITION_REPRESENTATION(#173,#170);
#169=REPRESENTATION('material name',(#171),#310);
#170=REPRESENTATION('density',(#166),#310);
#171=DESCRIPTIVE_REPRESENTATION_ITEM('Stainless Steel AISI 304',
'Stainless Steel AISI 304');
#172=PROPERTY_DEFINITION('material property','material name',#320);
#173=PROPERTY_DEFINITION('material property','density of part',#320);
#174=DATE_TIME_ROLE('creation_date');
#175=APPLIED_DATE_AND_TIME_ASSIGNMENT(#176,#174,(#320));
#176=DATE_AND_TIME(#177,#178);
#177=CALENDAR_DATE(2014,20,11);
#178=LOCAL_TIME(11,0,44.,#179);
#179=COORDINATED_UNIVERSAL_TIME_OFFSET(0,0,.BEHIND.);
#180=AXIS2_PLACEMENT_3D('placement',#261,#205,#206);
#181=AXIS2_PLACEMENT_3D('',#262,#207,#208);
#182=AXIS2_PLACEMENT_3D('',#265,#209,#210);
#183=AXIS2_PLACEMENT_3D('',#266,#211,#212);
#184=AXIS2_PLACEMENT_3D('',#270,#214,#215);
#185=AXIS2_PLACEMENT_3D('',#271,#216,#217);
#186=AXIS2_PLACEMENT_3D('',#272,#218,#219);
#187=AXIS2_PLACEMENT_3D('',#275,#220,#221);
#188=AXIS2_PLACEMENT_3D('',#276,#222,#223);
#189=AXIS2_PLACEMENT_3D('',#278,#225,#226);
#190=AXIS2_PLACEMENT_3D('',#281,#227,#228);
#191=AXIS2_PLACEMENT_3D('',#282,#229,#230);
#192=AXIS2_PLACEMENT_3D('',#284,#232,#233);
#193=AXIS2_PLACEMENT_3D('',#287,#234,#235);
#194=AXIS2_PLACEMENT_3D('',#288,#236,#237);
#195=AXIS2_PLACEMENT_3D('',#290,#239,#240);
#196=AXIS2_PLACEMENT_3D('',#293,#241,#242);
#197=AXIS2_PLACEMENT_3D('',#294,#243,#244);
#198=AXIS2_PLACEMENT_3D('',#296,#246,#247);
#199=AXIS2_PLACEMENT_3D('',#299,#248,#249);
#200=AXIS2_PLACEMENT_3D('',#300,#250,#251);
#201=AXIS2_PLACEMENT_3D('',#301,#252,#253);
#202=AXIS2_PLACEMENT_3D('',#305,#255,#256);
#203=AXIS2_PLACEMENT_3D('',#306,#257,#258);
#204=AXIS2_PLACEMENT_3D('',#307,#259,#260);
#205=DIRECTION('axis',(0.,0.,1.));
#206=DIRECTION('refdir',(1.,0.,0.));
#207=DIRECTION('center_axis',(0.,1.,0.));
#208=DIRECTION('ref_axis',(-1.,0.,0.));
#209=DIRECTION('center_axis',(0.,1.,0.));
#210=DIRECTION('ref_axis',(1.,0.,0.));
#211=DIRECTION('center_axis',(0.,1.,0.));
#212=DIRECTION('ref_axis',(1.,0.,0.));
#213=DIRECTION('',(0.,-1.,0.));
#214=DIRECTION('center_axis',(0.,1.,0.));
#215=DIRECTION('ref_axis',(1.,0.,0.));
#216=DIRECTION('center_axis',(0.,1.,0.));
#217=DIRECTION('ref_axis',(1.,0.,0.));
#218=DIRECTION('center_axis',(0.,-1.,0.));
#219=DIRECTION('ref_axis',(-1.,0.,0.));
#220=DIRECTION('center_axis',(0.,1.,0.));
#221=DIRECTION('ref_axis',(1.,0.,0.));
#222=DIRECTION('center_axis',(0.,1.,0.));
#223=DIRECTION('ref_axis',(1.,0.,0.));
#224=DIRECTION('',(0.965925826289068,-0.258819045102521,-1.18291797137867E-16));
#225=DIRECTION('center_axis',(0.,1.,0.));
#226=DIRECTION('ref_axis',(-1.,0.,0.));
#227=DIRECTION('center_axis',(0.,1.,0.));
#228=DIRECTION('ref_axis',(1.,0.,0.));
#229=DIRECTION('center_axis',(0.,1.,0.));
#230=DIRECTION('ref_axis',(1.,0.,0.));
#231=DIRECTION('',(0.,-1.,0.));
#232=DIRECTION('center_axis',(0.,1.,0.));
#233=DIRECTION('ref_axis',(-1.,0.,0.));
#234=DIRECTION('center_axis',(0.,1.,0.));
#235=DIRECTION('ref_axis',(1.,0.,0.));
#236=DIRECTION('center_axis',(0.,1.,0.));
#237=DIRECTION('ref_axis',(1.,0.,0.));
#238=DIRECTION('',(-0.965925826289069,-0.258819045102518,1.18291797137867E-16));
#239=DIRECTION('center_axis',(0.,1.,0.));
#240=DIRECTION('ref_axis',(-1.,0.,0.));
#241=DIRECTION('center_axis',(0.,1.,0.));
#242=DIRECTION('ref_axis',(1.,0.,0.));
#243=DIRECTION('center_axis',(0.,1.,0.));
#244=DIRECTION('ref_axis',(1.,0.,0.));
#245=DIRECTION('',(0.,-1.,0.));
#246=DIRECTION('center_axis',(0.,1.,0.));
#247=DIRECTION('ref_axis',(0.,0.,1.));
#248=DIRECTION('center_axis',(0.,1.,0.));
#249=DIRECTION('ref_axis',(1.,0.,0.));
#250=DIRECTION('center_axis',(0.,1.,0.));
#251=DIRECTION('ref_axis',(1.,0.,0.));
#252=DIRECTION('center_axis',(0.,1.,0.));
#253=DIRECTION('ref_axis',(-1.,0.,0.));
#254=DIRECTION('',(0.,-1.,0.));
#255=DIRECTION('center_axis',(0.,1.,0.));
#256=DIRECTION('ref_axis',(1.,0.,0.));
#257=DIRECTION('center_axis',(0.,1.,0.));
#258=DIRECTION('ref_axis',(1.,0.,0.));
#259=DIRECTION('center_axis',(0.,-1.,0.));
#260=DIRECTION('ref_axis',(0.,0.,-1.));
#261=CARTESIAN_POINT('',(0.,0.,0.));
#262=CARTESIAN_POINT('Origin',(0.,1.5,0.));
#263=CARTESIAN_POINT('',(-15.,3.,0.));
#264=CARTESIAN_POINT('',(15.,3.,-1.83697019872103E-15));
#265=CARTESIAN_POINT('Origin',(0.,3.,0.));
#266=CARTESIAN_POINT('Origin',(0.,3.,0.));
#267=CARTESIAN_POINT('',(15.,0.,-1.83697019872103E-15));
#268=CARTESIAN_POINT('',(15.,1.5,-1.83697019872103E-15));
#269=CARTESIAN_POINT('',(-15.,0.,0.));
#270=CARTESIAN_POINT('Origin',(0.,0.,0.));
#271=CARTESIAN_POINT('Origin',(0.,0.,0.));
#272=CARTESIAN_POINT('Origin',(0.,3.73016154937481,0.));
#273=CARTESIAN_POINT('',(-9.55,4.46032309874962,0.));
#274=CARTESIAN_POINT('',(9.55,4.46032309874962,-1.16953769318572E-15));
#275=CARTESIAN_POINT('Origin',(0.,4.46032309874962,0.));
#276=CARTESIAN_POINT('Origin',(0.,4.46032309874962,0.));
#277=CARTESIAN_POINT('',(12.275,3.73016154937481,-1.50325394595338E-15));
#278=CARTESIAN_POINT('Origin',(0.,160.,0.));
#279=CARTESIAN_POINT('',(-9.55,315.53967690125,0.));
#280=CARTESIAN_POINT('',(9.55,315.53967690125,-1.16953769318572E-15));
#281=CARTESIAN_POINT('Origin',(0.,315.53967690125,0.));
#282=CARTESIAN_POINT('Origin',(0.,315.53967690125,0.));
#283=CARTESIAN_POINT('',(9.55,160.,-1.16953769318572E-15));
#284=CARTESIAN_POINT('Origin',(0.,316.269838450625,0.));
#285=CARTESIAN_POINT('',(-15.0000000000003,317.,0.));
#286=CARTESIAN_POINT('',(15.0000000000003,317.,-1.83697019872107E-15));
#287=CARTESIAN_POINT('Origin',(0.,317.,0.));
#288=CARTESIAN_POINT('Origin',(0.,317.,0.));
#289=CARTESIAN_POINT('',(12.2750000000002,316.269838450625,-1.50325394595339E-15));
#290=CARTESIAN_POINT('Origin',(0.,318.5,0.));
#291=CARTESIAN_POINT('',(-15.0000000000003,320.,0.));
#292=CARTESIAN_POINT('',(15.0000000000003,320.,-1.83697019872107E-15));
#293=CARTESIAN_POINT('Origin',(0.,320.,0.));
#294=CARTESIAN_POINT('Origin',(0.,320.,0.));
#295=CARTESIAN_POINT('',(15.0000000000003,318.5,-1.83697019872107E-15));
#296=CARTESIAN_POINT('Origin',(-8.6,320.,0.));
#297=CARTESIAN_POINT('',(-8.6,320.,0.));
#298=CARTESIAN_POINT('',(8.6,320.,-1.05319624726672E-15));
#299=CARTESIAN_POINT('Origin',(0.,320.,0.));
#300=CARTESIAN_POINT('Origin',(0.,320.,0.));
#301=CARTESIAN_POINT('Origin',(0.,1.25,0.));
#302=CARTESIAN_POINT('',(8.6,0.,-1.05319624726672E-15));
#303=CARTESIAN_POINT('',(8.6,1.25,-1.05319624726672E-15));
#304=CARTESIAN_POINT('',(-8.6,0.,0.));
#305=CARTESIAN_POINT('Origin',(0.,0.,0.));
#306=CARTESIAN_POINT('Origin',(0.,0.,0.));
#307=CARTESIAN_POINT('Origin',(-15.,0.,0.));
#308=UNCERTAINTY_MEASURE_WITH_UNIT(LENGTH_MEASURE(0.01),#312,
'DISTANCE_ACCURACY_VALUE',
'Maximum model space distance between geometric entities at asserted c
onnectivities');
#309=UNCERTAINTY_MEASURE_WITH_UNIT(LENGTH_MEASURE(0.01),#312,
'DISTANCE_ACCURACY_VALUE',
'Maximum model space distance between geometric entities at asserted c
onnectivities');
#310=(
GEOMETRIC_REPRESENTATION_CONTEXT(3)
GLOBAL_UNCERTAINTY_ASSIGNED_CONTEXT((#308))
GLOBAL_UNIT_ASSIGNED_CONTEXT((#312,#314,#315))
REPRESENTATION_CONTEXT('','3D')
);
#311=(
GEOMETRIC_REPRESENTATION_CONTEXT(3)
GLOBAL_UNCERTAINTY_ASSIGNED_CONTEXT((#309))
GLOBAL_UNIT_ASSIGNED_CONTEXT((#312,#314,#315))
REPRESENTATION_CONTEXT('','3D')
);
#312=(
LENGTH_UNIT()
NAMED_UNIT(*)
SI_UNIT(.MILLI.,.METRE.)
);
#313=(
LENGTH_UNIT()
NAMED_UNIT(*)
SI_UNIT(.CENTI.,.METRE.)
);
#314=(
NAMED_UNIT(*)
PLANE_ANGLE_UNIT()
SI_UNIT($,.RADIAN.)
);
#315=(
NAMED_UNIT(*)
SI_UNIT($,.STERADIAN.)
SOLID_ANGLE_UNIT()
);
#316=SHAPE_DEFINITION_REPRESENTATION(#317,#318);
#317=PRODUCT_DEFINITION_SHAPE('',$,#320);
#318=SHAPE_REPRESENTATION('',(#180),#310);
#319=PRODUCT_DEFINITION_CONTEXT('part definition',#324,'design');
#320=PRODUCT_DEFINITION('FL-SCL16KF','FL-SCL16KF',#321,#319);
#321=PRODUCT_DEFINITION_FORMATION('',$,#326);
#322=PRODUCT_RELATED_PRODUCT_CATEGORY('FL-SCL16KF','FL-SCL16KF',(#326));
#323=APPLICATION_PROTOCOL_DEFINITION('international standard',
'automotive_design',2009,#324);
#324=APPLICATION_CONTEXT(
'Core Data for Automotive Mechanical Design Process');
#325=PRODUCT_CONTEXT('part definition',#324,'mechanical');
#326=PRODUCT('FL-SCL16KF','FL-SCL16KF',$,(#325));
#327=PRESENTATION_STYLE_ASSIGNMENT((#328));
#328=SURFACE_STYLE_USAGE(.BOTH.,#331);
#329=SURFACE_STYLE_RENDERING_WITH_PROPERTIES($,#335,(#330));
#330=SURFACE_STYLE_TRANSPARENT(1.);
#331=SURFACE_SIDE_STYLE('',(#332,#329));
#332=SURFACE_STYLE_FILL_AREA(#333);
#333=FILL_AREA_STYLE('',(#334));
#334=FILL_AREA_STYLE_COLOUR('',#335);
#335=COLOUR_RGB('',0.745098039215686,0.737254901960784,0.729411764705882);
ENDSEC;
END-ISO-10303-21;
