ISO-10303-21;
HEADER;
/* Generated by software containing ST-Developer
 * from STEP Tools, Inc. (www.steptools.com) 
 */

FILE_DESCRIPTION(
/* description */ (''),
/* implementation_level */ '2;1');

FILE_NAME(
/* name */ 
'G:\\FLANGES & FITTINGS\\Rubber hose adapters\\Step files\\FL-RHA25KF.
stp',
/* time_stamp */ '2019-02-14T12:06:26+00:00',
/* author */ ('paul'),
/* organization */ (''),
/* preprocessor_version */ 'ST-DEVELOPER v17.2',
/* originating_system */ 'Autodesk Inventor 2019',
/* authorisation */ '');

FILE_SCHEMA (('AUTOMOTIVE_DESIGN { 1 0 10303 214 3 1 1 }'));
ENDSEC;

DATA;
#10=MECHANICAL_DESIGN_GEOMETRIC_PRESENTATION_REPRESENTATION('',(#13),#556);
#11=SHAPE_REPRESENTATION_RELATIONSHIP('SRR','None',#563,#12);
#12=ADVANCED_BREP_SHAPE_REPRESENTATION('',(#14),#555);
#13=STYLED_ITEM('',(#572),#14);
#14=MANIFOLD_SOLID_BREP('Solid1',#295);
#15=CONICAL_SURFACE('',#321,4.79873571691798,0.599934248505861);
#16=CONICAL_SURFACE('',#328,5.35199834589639,0.174532925199433);
#17=CONICAL_SURFACE('',#331,13.,1.30899694126109);
#18=CONICAL_SURFACE('',#341,5.35199834589639,0.756255377228974);
#19=CONICAL_SURFACE('',#344,5.35199834589639,0.174532925199433);
#20=CONICAL_SURFACE('',#347,5.35199834589639,0.756255377228976);
#21=CONICAL_SURFACE('',#350,5.35199834589639,0.174532925199433);
#22=CONICAL_SURFACE('',#353,5.35199834589639,0.756255377228973);
#23=CONICAL_SURFACE('',#356,5.44016183625062,0.174532925199433);
#24=FACE_BOUND('',#48,.T.);
#25=FACE_BOUND('',#51,.T.);
#26=FACE_BOUND('',#56,.T.);
#27=PLANE('',#318);
#28=PLANE('',#325);
#29=PLANE('',#339);
#30=FACE_OUTER_BOUND('',#46,.T.);
#31=FACE_OUTER_BOUND('',#47,.T.);
#32=FACE_OUTER_BOUND('',#49,.T.);
#33=FACE_OUTER_BOUND('',#50,.T.);
#34=FACE_OUTER_BOUND('',#52,.T.);
#35=FACE_OUTER_BOUND('',#53,.T.);
#36=FACE_OUTER_BOUND('',#54,.T.);
#37=FACE_OUTER_BOUND('',#55,.T.);
#38=FACE_OUTER_BOUND('',#57,.T.);
#39=FACE_OUTER_BOUND('',#58,.T.);
#40=FACE_OUTER_BOUND('',#59,.T.);
#41=FACE_OUTER_BOUND('',#60,.T.);
#42=FACE_OUTER_BOUND('',#61,.T.);
#43=FACE_OUTER_BOUND('',#62,.T.);
#44=FACE_OUTER_BOUND('',#63,.T.);
#45=FACE_OUTER_BOUND('',#64,.T.);
#46=EDGE_LOOP('',(#191,#192,#193,#194));
#47=EDGE_LOOP('',(#195));
#48=EDGE_LOOP('',(#196,#197));
#49=EDGE_LOOP('',(#198,#199,#200,#201,#202));
#50=EDGE_LOOP('',(#203));
#51=EDGE_LOOP('',(#204,#205));
#52=EDGE_LOOP('',(#206,#207,#208,#209,#210,#211));
#53=EDGE_LOOP('',(#212,#213,#214,#215,#216,#217));
#54=EDGE_LOOP('',(#218,#219,#220,#221,#222,#223));
#55=EDGE_LOOP('',(#224,#225));
#56=EDGE_LOOP('',(#226));
#57=EDGE_LOOP('',(#227,#228,#229,#230,#231,#232));
#58=EDGE_LOOP('',(#233,#234,#235,#236,#237,#238));
#59=EDGE_LOOP('',(#239,#240,#241,#242,#243,#244));
#60=EDGE_LOOP('',(#245,#246,#247,#248,#249,#250));
#61=EDGE_LOOP('',(#251,#252,#253,#254,#255,#256));
#62=EDGE_LOOP('',(#257,#258,#259,#260,#261,#262));
#63=EDGE_LOOP('',(#263,#264,#265,#266,#267,#268));
#64=EDGE_LOOP('',(#269,#270,#271,#272,#273,#274));
#65=LINE('',#470,#78);
#66=LINE('',#483,#79);
#67=LINE('',#495,#80);
#68=LINE('',#502,#81);
#69=LINE('',#511,#82);
#70=LINE('',#514,#83);
#71=LINE('',#520,#84);
#72=LINE('',#526,#85);
#73=LINE('',#532,#86);
#74=LINE('',#538,#87);
#75=LINE('',#544,#88);
#76=LINE('',#550,#89);
#77=LINE('',#552,#90);
#78=VECTOR('',#366,13.1);
#79=VECTOR('',#381,4.79873571691798);
#80=VECTOR('',#396,5.35199834589639);
#81=VECTOR('',#403,13.);
#82=VECTOR('',#414,20.);
#83=VECTOR('',#419,3.5);
#84=VECTOR('',#426,5.35199834589639);
#85=VECTOR('',#433,5.35199834589639);
#86=VECTOR('',#440,5.35199834589639);
#87=VECTOR('',#447,5.35199834589639);
#88=VECTOR('',#454,5.35199834589639);
#89=VECTOR('',#461,5.44016183625062);
#90=VECTOR('',#464,6.);
#91=CIRCLE('',#316,13.1);
#92=CIRCLE('',#317,13.1);
#93=CIRCLE('',#319,3.5);
#94=CIRCLE('',#320,3.5);
#95=CIRCLE('',#322,4.96714776133471);
#96=CIRCLE('',#323,4.96714776133471);
#97=CIRCLE('',#324,4.63032367250125);
#98=CIRCLE('',#326,3.5);
#99=CIRCLE('',#327,3.5);
#100=CIRCLE('',#329,5.82367301929153);
#101=CIRCLE('',#330,5.82367301929153);
#102=CIRCLE('',#332,20.);
#103=CIRCLE('',#333,20.);
#104=CIRCLE('',#334,6.);
#105=CIRCLE('',#335,6.);
#106=CIRCLE('',#337,20.);
#107=CIRCLE('',#338,20.);
#108=CIRCLE('',#342,4.88032367250125);
#109=CIRCLE('',#343,4.88032367250125);
#110=CIRCLE('',#345,5.82367301929153);
#111=CIRCLE('',#346,5.82367301929153);
#112=CIRCLE('',#348,4.88032367250125);
#113=CIRCLE('',#349,4.88032367250125);
#114=CIRCLE('',#351,5.82367301929153);
#115=CIRCLE('',#352,5.82367301929153);
#116=CIRCLE('',#354,4.88032367250125);
#117=CIRCLE('',#355,4.88032367250125);
#118=CIRCLE('',#357,6.);
#119=CIRCLE('',#358,6.);
#120=VERTEX_POINT('',#467);
#121=VERTEX_POINT('',#469);
#122=VERTEX_POINT('',#473);
#123=VERTEX_POINT('',#474);
#124=VERTEX_POINT('',#478);
#125=VERTEX_POINT('',#479);
#126=VERTEX_POINT('',#482);
#127=VERTEX_POINT('',#486);
#128=VERTEX_POINT('',#487);
#129=VERTEX_POINT('',#491);
#130=VERTEX_POINT('',#492);
#131=VERTEX_POINT('',#497);
#132=VERTEX_POINT('',#498);
#133=VERTEX_POINT('',#501);
#134=VERTEX_POINT('',#503);
#135=VERTEX_POINT('',#507);
#136=VERTEX_POINT('',#508);
#137=VERTEX_POINT('',#516);
#138=VERTEX_POINT('',#517);
#139=VERTEX_POINT('',#522);
#140=VERTEX_POINT('',#523);
#141=VERTEX_POINT('',#528);
#142=VERTEX_POINT('',#529);
#143=VERTEX_POINT('',#534);
#144=VERTEX_POINT('',#535);
#145=VERTEX_POINT('',#540);
#146=VERTEX_POINT('',#541);
#147=VERTEX_POINT('',#546);
#148=VERTEX_POINT('',#547);
#149=EDGE_CURVE('',#120,#120,#91,.T.);
#150=EDGE_CURVE('',#120,#121,#65,.T.);
#151=EDGE_CURVE('',#121,#121,#92,.T.);
#152=EDGE_CURVE('',#122,#123,#93,.T.);
#153=EDGE_CURVE('',#123,#122,#94,.T.);
#154=EDGE_CURVE('',#124,#125,#95,.T.);
#155=EDGE_CURVE('',#125,#124,#96,.T.);
#156=EDGE_CURVE('',#124,#126,#66,.T.);
#157=EDGE_CURVE('',#126,#126,#97,.T.);
#158=EDGE_CURVE('',#127,#128,#98,.T.);
#159=EDGE_CURVE('',#128,#127,#99,.T.);
#160=EDGE_CURVE('',#129,#130,#100,.T.);
#161=EDGE_CURVE('',#130,#129,#101,.T.);
#162=EDGE_CURVE('',#130,#125,#67,.T.);
#163=EDGE_CURVE('',#131,#132,#102,.T.);
#164=EDGE_CURVE('',#132,#131,#103,.T.);
#165=EDGE_CURVE('',#132,#133,#68,.T.);
#166=EDGE_CURVE('',#133,#134,#104,.T.);
#167=EDGE_CURVE('',#134,#133,#105,.T.);
#168=EDGE_CURVE('',#135,#136,#106,.T.);
#169=EDGE_CURVE('',#136,#135,#107,.T.);
#170=EDGE_CURVE('',#136,#132,#69,.T.);
#171=EDGE_CURVE('',#123,#128,#70,.T.);
#172=EDGE_CURVE('',#137,#138,#108,.T.);
#173=EDGE_CURVE('',#138,#137,#109,.T.);
#174=EDGE_CURVE('',#138,#130,#71,.T.);
#175=EDGE_CURVE('',#139,#140,#110,.T.);
#176=EDGE_CURVE('',#140,#139,#111,.T.);
#177=EDGE_CURVE('',#140,#138,#72,.T.);
#178=EDGE_CURVE('',#141,#142,#112,.T.);
#179=EDGE_CURVE('',#142,#141,#113,.T.);
#180=EDGE_CURVE('',#142,#140,#73,.T.);
#181=EDGE_CURVE('',#143,#144,#114,.T.);
#182=EDGE_CURVE('',#144,#143,#115,.T.);
#183=EDGE_CURVE('',#144,#142,#74,.T.);
#184=EDGE_CURVE('',#145,#146,#116,.T.);
#185=EDGE_CURVE('',#146,#145,#117,.T.);
#186=EDGE_CURVE('',#146,#144,#75,.T.);
#187=EDGE_CURVE('',#147,#148,#118,.T.);
#188=EDGE_CURVE('',#148,#147,#119,.T.);
#189=EDGE_CURVE('',#148,#146,#76,.T.);
#190=EDGE_CURVE('',#133,#148,#77,.T.);
#191=ORIENTED_EDGE('',*,*,#149,.F.);
#192=ORIENTED_EDGE('',*,*,#150,.T.);
#193=ORIENTED_EDGE('',*,*,#151,.T.);
#194=ORIENTED_EDGE('',*,*,#150,.F.);
#195=ORIENTED_EDGE('',*,*,#151,.F.);
#196=ORIENTED_EDGE('',*,*,#152,.F.);
#197=ORIENTED_EDGE('',*,*,#153,.F.);
#198=ORIENTED_EDGE('',*,*,#154,.T.);
#199=ORIENTED_EDGE('',*,*,#155,.T.);
#200=ORIENTED_EDGE('',*,*,#156,.T.);
#201=ORIENTED_EDGE('',*,*,#157,.T.);
#202=ORIENTED_EDGE('',*,*,#156,.F.);
#203=ORIENTED_EDGE('',*,*,#157,.F.);
#204=ORIENTED_EDGE('',*,*,#158,.T.);
#205=ORIENTED_EDGE('',*,*,#159,.T.);
#206=ORIENTED_EDGE('',*,*,#160,.F.);
#207=ORIENTED_EDGE('',*,*,#161,.F.);
#208=ORIENTED_EDGE('',*,*,#162,.T.);
#209=ORIENTED_EDGE('',*,*,#154,.F.);
#210=ORIENTED_EDGE('',*,*,#155,.F.);
#211=ORIENTED_EDGE('',*,*,#162,.F.);
#212=ORIENTED_EDGE('',*,*,#163,.F.);
#213=ORIENTED_EDGE('',*,*,#164,.F.);
#214=ORIENTED_EDGE('',*,*,#165,.T.);
#215=ORIENTED_EDGE('',*,*,#166,.T.);
#216=ORIENTED_EDGE('',*,*,#167,.T.);
#217=ORIENTED_EDGE('',*,*,#165,.F.);
#218=ORIENTED_EDGE('',*,*,#168,.F.);
#219=ORIENTED_EDGE('',*,*,#169,.F.);
#220=ORIENTED_EDGE('',*,*,#170,.T.);
#221=ORIENTED_EDGE('',*,*,#164,.T.);
#222=ORIENTED_EDGE('',*,*,#163,.T.);
#223=ORIENTED_EDGE('',*,*,#170,.F.);
#224=ORIENTED_EDGE('',*,*,#168,.T.);
#225=ORIENTED_EDGE('',*,*,#169,.T.);
#226=ORIENTED_EDGE('',*,*,#149,.T.);
#227=ORIENTED_EDGE('',*,*,#152,.T.);
#228=ORIENTED_EDGE('',*,*,#171,.T.);
#229=ORIENTED_EDGE('',*,*,#158,.F.);
#230=ORIENTED_EDGE('',*,*,#159,.F.);
#231=ORIENTED_EDGE('',*,*,#171,.F.);
#232=ORIENTED_EDGE('',*,*,#153,.T.);
#233=ORIENTED_EDGE('',*,*,#172,.F.);
#234=ORIENTED_EDGE('',*,*,#173,.F.);
#235=ORIENTED_EDGE('',*,*,#174,.T.);
#236=ORIENTED_EDGE('',*,*,#161,.T.);
#237=ORIENTED_EDGE('',*,*,#160,.T.);
#238=ORIENTED_EDGE('',*,*,#174,.F.);
#239=ORIENTED_EDGE('',*,*,#175,.F.);
#240=ORIENTED_EDGE('',*,*,#176,.F.);
#241=ORIENTED_EDGE('',*,*,#177,.T.);
#242=ORIENTED_EDGE('',*,*,#173,.T.);
#243=ORIENTED_EDGE('',*,*,#172,.T.);
#244=ORIENTED_EDGE('',*,*,#177,.F.);
#245=ORIENTED_EDGE('',*,*,#178,.F.);
#246=ORIENTED_EDGE('',*,*,#179,.F.);
#247=ORIENTED_EDGE('',*,*,#180,.T.);
#248=ORIENTED_EDGE('',*,*,#176,.T.);
#249=ORIENTED_EDGE('',*,*,#175,.T.);
#250=ORIENTED_EDGE('',*,*,#180,.F.);
#251=ORIENTED_EDGE('',*,*,#181,.F.);
#252=ORIENTED_EDGE('',*,*,#182,.F.);
#253=ORIENTED_EDGE('',*,*,#183,.T.);
#254=ORIENTED_EDGE('',*,*,#179,.T.);
#255=ORIENTED_EDGE('',*,*,#178,.T.);
#256=ORIENTED_EDGE('',*,*,#183,.F.);
#257=ORIENTED_EDGE('',*,*,#184,.F.);
#258=ORIENTED_EDGE('',*,*,#185,.F.);
#259=ORIENTED_EDGE('',*,*,#186,.T.);
#260=ORIENTED_EDGE('',*,*,#182,.T.);
#261=ORIENTED_EDGE('',*,*,#181,.T.);
#262=ORIENTED_EDGE('',*,*,#186,.F.);
#263=ORIENTED_EDGE('',*,*,#187,.F.);
#264=ORIENTED_EDGE('',*,*,#188,.F.);
#265=ORIENTED_EDGE('',*,*,#189,.T.);
#266=ORIENTED_EDGE('',*,*,#185,.T.);
#267=ORIENTED_EDGE('',*,*,#184,.T.);
#268=ORIENTED_EDGE('',*,*,#189,.F.);
#269=ORIENTED_EDGE('',*,*,#167,.F.);
#270=ORIENTED_EDGE('',*,*,#166,.F.);
#271=ORIENTED_EDGE('',*,*,#190,.T.);
#272=ORIENTED_EDGE('',*,*,#188,.T.);
#273=ORIENTED_EDGE('',*,*,#187,.T.);
#274=ORIENTED_EDGE('',*,*,#190,.F.);
#275=CYLINDRICAL_SURFACE('',#315,13.1);
#276=CYLINDRICAL_SURFACE('',#336,20.);
#277=CYLINDRICAL_SURFACE('',#340,3.5);
#278=CYLINDRICAL_SURFACE('',#359,6.);
#279=ADVANCED_FACE('',(#30),#275,.F.);
#280=ADVANCED_FACE('',(#31,#24),#27,.F.);
#281=ADVANCED_FACE('',(#32),#15,.T.);
#282=ADVANCED_FACE('',(#33,#25),#28,.T.);
#283=ADVANCED_FACE('',(#34),#16,.T.);
#284=ADVANCED_FACE('',(#35),#17,.T.);
#285=ADVANCED_FACE('',(#36),#276,.T.);
#286=ADVANCED_FACE('',(#37,#26),#29,.T.);
#287=ADVANCED_FACE('',(#38),#277,.F.);
#288=ADVANCED_FACE('',(#39),#18,.T.);
#289=ADVANCED_FACE('',(#40),#19,.T.);
#290=ADVANCED_FACE('',(#41),#20,.T.);
#291=ADVANCED_FACE('',(#42),#21,.T.);
#292=ADVANCED_FACE('',(#43),#22,.T.);
#293=ADVANCED_FACE('',(#44),#23,.T.);
#294=ADVANCED_FACE('',(#45),#278,.T.);
#295=CLOSED_SHELL('',(#279,#280,#281,#282,#283,#284,#285,#286,#287,#288,
#289,#290,#291,#292,#293,#294));
#296=DERIVED_UNIT_ELEMENT(#298,1.);
#297=DERIVED_UNIT_ELEMENT(#558,3.);
#298=(
MASS_UNIT()
NAMED_UNIT(*)
SI_UNIT($,.GRAM.)
);
#299=DERIVED_UNIT((#296,#297));
#300=MEASURE_REPRESENTATION_ITEM('density measure',
POSITIVE_RATIO_MEASURE(2.7),#299);
#301=PROPERTY_DEFINITION_REPRESENTATION(#306,#303);
#302=PROPERTY_DEFINITION_REPRESENTATION(#307,#304);
#303=REPRESENTATION('material name',(#305),#555);
#304=REPRESENTATION('density',(#300),#555);
#305=DESCRIPTIVE_REPRESENTATION_ITEM('Aluminum 6061','Aluminum 6061');
#306=PROPERTY_DEFINITION('material property','material name',#565);
#307=PROPERTY_DEFINITION('material property','density of part',#565);
#308=DATE_TIME_ROLE('creation_date');
#309=APPLIED_DATE_AND_TIME_ASSIGNMENT(#310,#308,(#565));
#310=DATE_AND_TIME(#311,#312);
#311=CALENDAR_DATE(2018,2,1);
#312=LOCAL_TIME(15,28,12.,#313);
#313=COORDINATED_UNIVERSAL_TIME_OFFSET(0,0,.BEHIND.);
#314=AXIS2_PLACEMENT_3D('placement',#465,#360,#361);
#315=AXIS2_PLACEMENT_3D('',#466,#362,#363);
#316=AXIS2_PLACEMENT_3D('',#468,#364,#365);
#317=AXIS2_PLACEMENT_3D('',#471,#367,#368);
#318=AXIS2_PLACEMENT_3D('',#472,#369,#370);
#319=AXIS2_PLACEMENT_3D('',#475,#371,#372);
#320=AXIS2_PLACEMENT_3D('',#476,#373,#374);
#321=AXIS2_PLACEMENT_3D('',#477,#375,#376);
#322=AXIS2_PLACEMENT_3D('',#480,#377,#378);
#323=AXIS2_PLACEMENT_3D('',#481,#379,#380);
#324=AXIS2_PLACEMENT_3D('',#484,#382,#383);
#325=AXIS2_PLACEMENT_3D('',#485,#384,#385);
#326=AXIS2_PLACEMENT_3D('',#488,#386,#387);
#327=AXIS2_PLACEMENT_3D('',#489,#388,#389);
#328=AXIS2_PLACEMENT_3D('',#490,#390,#391);
#329=AXIS2_PLACEMENT_3D('',#493,#392,#393);
#330=AXIS2_PLACEMENT_3D('',#494,#394,#395);
#331=AXIS2_PLACEMENT_3D('',#496,#397,#398);
#332=AXIS2_PLACEMENT_3D('',#499,#399,#400);
#333=AXIS2_PLACEMENT_3D('',#500,#401,#402);
#334=AXIS2_PLACEMENT_3D('',#504,#404,#405);
#335=AXIS2_PLACEMENT_3D('',#505,#406,#407);
#336=AXIS2_PLACEMENT_3D('',#506,#408,#409);
#337=AXIS2_PLACEMENT_3D('',#509,#410,#411);
#338=AXIS2_PLACEMENT_3D('',#510,#412,#413);
#339=AXIS2_PLACEMENT_3D('',#512,#415,#416);
#340=AXIS2_PLACEMENT_3D('',#513,#417,#418);
#341=AXIS2_PLACEMENT_3D('',#515,#420,#421);
#342=AXIS2_PLACEMENT_3D('',#518,#422,#423);
#343=AXIS2_PLACEMENT_3D('',#519,#424,#425);
#344=AXIS2_PLACEMENT_3D('',#521,#427,#428);
#345=AXIS2_PLACEMENT_3D('',#524,#429,#430);
#346=AXIS2_PLACEMENT_3D('',#525,#431,#432);
#347=AXIS2_PLACEMENT_3D('',#527,#434,#435);
#348=AXIS2_PLACEMENT_3D('',#530,#436,#437);
#349=AXIS2_PLACEMENT_3D('',#531,#438,#439);
#350=AXIS2_PLACEMENT_3D('',#533,#441,#442);
#351=AXIS2_PLACEMENT_3D('',#536,#443,#444);
#352=AXIS2_PLACEMENT_3D('',#537,#445,#446);
#353=AXIS2_PLACEMENT_3D('',#539,#448,#449);
#354=AXIS2_PLACEMENT_3D('',#542,#450,#451);
#355=AXIS2_PLACEMENT_3D('',#543,#452,#453);
#356=AXIS2_PLACEMENT_3D('',#545,#455,#456);
#357=AXIS2_PLACEMENT_3D('',#548,#457,#458);
#358=AXIS2_PLACEMENT_3D('',#549,#459,#460);
#359=AXIS2_PLACEMENT_3D('',#551,#462,#463);
#360=DIRECTION('axis',(0.,0.,1.));
#361=DIRECTION('refdir',(1.,0.,0.));
#362=DIRECTION('center_axis',(1.,0.,0.));
#363=DIRECTION('ref_axis',(0.,0.,-1.));
#364=DIRECTION('center_axis',(1.,0.,0.));
#365=DIRECTION('ref_axis',(0.,0.,-1.));
#366=DIRECTION('',(1.,0.,0.));
#367=DIRECTION('center_axis',(1.,0.,0.));
#368=DIRECTION('ref_axis',(0.,0.,-1.));
#369=DIRECTION('center_axis',(1.,0.,0.));
#370=DIRECTION('ref_axis',(0.,0.,-1.));
#371=DIRECTION('center_axis',(-1.,0.,0.));
#372=DIRECTION('ref_axis',(0.,-1.,0.));
#373=DIRECTION('center_axis',(-1.,0.,0.));
#374=DIRECTION('ref_axis',(0.,-1.,0.));
#375=DIRECTION('center_axis',(-1.,0.,-6.17684171169911E-16));
#376=DIRECTION('ref_axis',(0.,1.,-3.16906471081791E-17));
#377=DIRECTION('center_axis',(1.,0.,0.));
#378=DIRECTION('ref_axis',(0.,1.,-6.12323399573677E-17));
#379=DIRECTION('center_axis',(1.,0.,0.));
#380=DIRECTION('ref_axis',(0.,1.,-6.12323399573677E-17));
#381=DIRECTION('',(0.825372739211862,0.56458820512468,4.22785396932043E-16));
#382=DIRECTION('center_axis',(-1.,0.,0.));
#383=DIRECTION('ref_axis',(0.,1.,0.));
#384=DIRECTION('center_axis',(1.,0.,0.));
#385=DIRECTION('ref_axis',(0.,0.,-1.));
#386=DIRECTION('center_axis',(-1.,0.,0.));
#387=DIRECTION('ref_axis',(0.,0.,1.));
#388=DIRECTION('center_axis',(-1.,0.,0.));
#389=DIRECTION('ref_axis',(0.,0.,1.));
#390=DIRECTION('center_axis',(-1.,0.,0.));
#391=DIRECTION('ref_axis',(0.,-1.,0.));
#392=DIRECTION('center_axis',(-1.,0.,0.));
#393=DIRECTION('ref_axis',(0.,0.,1.));
#394=DIRECTION('center_axis',(-1.,0.,0.));
#395=DIRECTION('ref_axis',(0.,0.,1.));
#396=DIRECTION('',(0.984807753012208,-0.17364817766693,2.12657684957577E-17));
#397=DIRECTION('center_axis',(-1.,0.,0.));
#398=DIRECTION('ref_axis',(0.,-1.,0.));
#399=DIRECTION('center_axis',(-1.,0.,0.));
#400=DIRECTION('ref_axis',(0.,0.,1.));
#401=DIRECTION('center_axis',(-1.,0.,0.));
#402=DIRECTION('ref_axis',(0.,0.,1.));
#403=DIRECTION('',(0.258819042914368,-0.965925826875382,1.1829179720967E-16));
#404=DIRECTION('center_axis',(-1.,0.,0.));
#405=DIRECTION('ref_axis',(0.,0.,1.));
#406=DIRECTION('center_axis',(-1.,0.,0.));
#407=DIRECTION('ref_axis',(0.,0.,1.));
#408=DIRECTION('center_axis',(-1.,0.,0.));
#409=DIRECTION('ref_axis',(0.,-1.,0.));
#410=DIRECTION('center_axis',(-1.,0.,0.));
#411=DIRECTION('ref_axis',(0.,0.,1.));
#412=DIRECTION('center_axis',(-1.,0.,0.));
#413=DIRECTION('ref_axis',(0.,0.,1.));
#414=DIRECTION('',(1.,0.,0.));
#415=DIRECTION('center_axis',(-1.,0.,0.));
#416=DIRECTION('ref_axis',(0.,0.,1.));
#417=DIRECTION('center_axis',(-1.,0.,0.));
#418=DIRECTION('ref_axis',(0.,-1.,0.));
#419=DIRECTION('',(1.,0.,0.));
#420=DIRECTION('center_axis',(1.,0.,0.));
#421=DIRECTION('ref_axis',(0.,-1.,0.));
#422=DIRECTION('center_axis',(-1.,0.,0.));
#423=DIRECTION('ref_axis',(0.,0.,1.));
#424=DIRECTION('center_axis',(-1.,0.,0.));
#425=DIRECTION('ref_axis',(0.,0.,1.));
#426=DIRECTION('',(0.727410673751048,0.686202383931334,-8.40355553048792E-17));
#427=DIRECTION('center_axis',(-1.,0.,0.));
#428=DIRECTION('ref_axis',(0.,-1.,0.));
#429=DIRECTION('center_axis',(-1.,0.,0.));
#430=DIRECTION('ref_axis',(0.,0.,1.));
#431=DIRECTION('center_axis',(-1.,0.,0.));
#432=DIRECTION('ref_axis',(0.,0.,1.));
#433=DIRECTION('',(0.984807753012208,-0.17364817766693,2.12657684957577E-17));
#434=DIRECTION('center_axis',(1.,0.,0.));
#435=DIRECTION('ref_axis',(0.,-1.,0.));
#436=DIRECTION('center_axis',(-1.,0.,0.));
#437=DIRECTION('ref_axis',(0.,0.,1.));
#438=DIRECTION('center_axis',(-1.,0.,0.));
#439=DIRECTION('ref_axis',(0.,0.,1.));
#440=DIRECTION('',(0.727410673751046,0.686202383931336,-8.40355553048794E-17));
#441=DIRECTION('center_axis',(-1.,0.,0.));
#442=DIRECTION('ref_axis',(0.,-1.,0.));
#443=DIRECTION('center_axis',(-1.,0.,0.));
#444=DIRECTION('ref_axis',(0.,0.,1.));
#445=DIRECTION('center_axis',(-1.,0.,0.));
#446=DIRECTION('ref_axis',(0.,0.,1.));
#447=DIRECTION('',(0.984807753012208,-0.17364817766693,2.12657684957577E-17));
#448=DIRECTION('center_axis',(1.,0.,0.));
#449=DIRECTION('ref_axis',(0.,-1.,0.));
#450=DIRECTION('center_axis',(-1.,0.,0.));
#451=DIRECTION('ref_axis',(0.,0.,1.));
#452=DIRECTION('center_axis',(-1.,0.,0.));
#453=DIRECTION('ref_axis',(0.,0.,1.));
#454=DIRECTION('',(0.727410673751048,0.686202383931334,-8.40355553048791E-17));
#455=DIRECTION('center_axis',(-1.,0.,0.));
#456=DIRECTION('ref_axis',(0.,-1.,0.));
#457=DIRECTION('center_axis',(-1.,0.,0.));
#458=DIRECTION('ref_axis',(0.,0.,1.));
#459=DIRECTION('center_axis',(-1.,0.,0.));
#460=DIRECTION('ref_axis',(0.,0.,1.));
#461=DIRECTION('',(0.984807753012208,-0.17364817766693,2.12657684957577E-17));
#462=DIRECTION('center_axis',(-1.,0.,0.));
#463=DIRECTION('ref_axis',(0.,-1.,0.));
#464=DIRECTION('',(1.,0.,0.));
#465=CARTESIAN_POINT('',(0.,0.,0.));
#466=CARTESIAN_POINT('Origin',(-40.,0.,0.));
#467=CARTESIAN_POINT('',(-40.,1.60428730688303E-15,13.1));
#468=CARTESIAN_POINT('Origin',(-40.,0.,0.));
#469=CARTESIAN_POINT('',(-37.5,1.60428730688303E-15,13.1));
#470=CARTESIAN_POINT('',(-40.,-1.60428730688303E-15,13.1));
#471=CARTESIAN_POINT('Origin',(-37.5,0.,0.));
#472=CARTESIAN_POINT('Origin',(-37.5,0.,-6.98689603627101E-16));
#473=CARTESIAN_POINT('',(-37.5,4.28626379701574E-16,3.5));
#474=CARTESIAN_POINT('',(-37.5,3.5,-4.28626379701574E-16));
#475=CARTESIAN_POINT('Origin',(-37.5,0.,0.));
#476=CARTESIAN_POINT('Origin',(-37.5,0.,0.));
#477=CARTESIAN_POINT('Origin',(-0.246201938253051,0.,-1.52075040170262E-16));
#478=CARTESIAN_POINT('',(-0.492403876506104,-4.96714776133471,-6.0830016068105E-16));
#479=CARTESIAN_POINT('',(-0.492403876506104,4.96714776133471,-6.0830016068105E-16));
#480=CARTESIAN_POINT('Origin',(-0.492403876506104,0.,-3.04150080340525E-16));
#481=CARTESIAN_POINT('Origin',(-0.492403876506104,0.,-3.04150080340525E-16));
#482=CARTESIAN_POINT('',(1.11022302462516E-15,-4.63032367250125,5.67051106454487E-16));
#483=CARTESIAN_POINT('',(-0.246201938253051,-4.79873571691798,5.87675633567769E-16));
#484=CARTESIAN_POINT('Origin',(1.11022302462516E-15,0.,0.));
#485=CARTESIAN_POINT('Origin',(1.11022302462516E-15,-4.88032367250125,0.));
#486=CARTESIAN_POINT('',(4.25888148103555E-16,-3.5,0.));
#487=CARTESIAN_POINT('',(0.,3.5,-4.28626379701574E-16));
#488=CARTESIAN_POINT('Origin',(0.,0.,0.));
#489=CARTESIAN_POINT('Origin',(0.,0.,0.));
#490=CARTESIAN_POINT('Origin',(-2.675,0.,0.));
#491=CARTESIAN_POINT('',(-5.34999999999999,-5.82367301929153,0.));
#492=CARTESIAN_POINT('',(-5.35,5.82367301929153,-7.13194252235618E-16));
#493=CARTESIAN_POINT('Origin',(-5.35,0.,0.));
#494=CARTESIAN_POINT('Origin',(-5.35,0.,0.));
#495=CARTESIAN_POINT('',(-2.675,5.35199834589639,-6.55430764334395E-16));
#496=CARTESIAN_POINT('Origin',(-35.1243556699781,0.,0.));
#497=CARTESIAN_POINT('',(-37.,-20.,0.));
#498=CARTESIAN_POINT('',(-37.,20.,-2.44929359829471E-15));
#499=CARTESIAN_POINT('Origin',(-37.,0.,0.));
#500=CARTESIAN_POINT('Origin',(-37.,0.,0.));
#501=CARTESIAN_POINT('',(-33.2487113399561,6.,-7.34788079488412E-16));
#502=CARTESIAN_POINT('',(-35.1243556699781,13.,-1.59204083889156E-15));
#503=CARTESIAN_POINT('',(-33.2487113399561,-6.,0.));
#504=CARTESIAN_POINT('Origin',(-33.2487113399561,0.,0.));
#505=CARTESIAN_POINT('Origin',(-33.2487113399561,0.,0.));
#506=CARTESIAN_POINT('Origin',(-38.5,0.,0.));
#507=CARTESIAN_POINT('',(-40.,-20.,0.));
#508=CARTESIAN_POINT('',(-40.,20.,-2.44929359829471E-15));
#509=CARTESIAN_POINT('Origin',(-40.,0.,0.));
#510=CARTESIAN_POINT('Origin',(-40.,0.,0.));
#511=CARTESIAN_POINT('',(-38.5,20.,-2.44929359829471E-15));
#512=CARTESIAN_POINT('Origin',(-40.,-3.5,0.));
#513=CARTESIAN_POINT('Origin',(-20.,0.,0.));
#514=CARTESIAN_POINT('',(-20.,3.5,-4.28626379701574E-16));
#515=CARTESIAN_POINT('Origin',(-5.85,0.,0.));
#516=CARTESIAN_POINT('',(-6.34999999999999,-4.88032367250125,0.));
#517=CARTESIAN_POINT('',(-6.34999999999999,4.88032367250125,-5.97667276433171E-16));
#518=CARTESIAN_POINT('Origin',(-6.34999999999999,0.,0.));
#519=CARTESIAN_POINT('Origin',(-6.34999999999999,0.,0.));
#520=CARTESIAN_POINT('',(-5.85,5.35199834589639,-6.55430764334395E-16));
#521=CARTESIAN_POINT('Origin',(-9.025,0.,0.));
#522=CARTESIAN_POINT('',(-11.7,-5.82367301929153,0.));
#523=CARTESIAN_POINT('',(-11.7,5.82367301929153,-7.13194252235618E-16));
#524=CARTESIAN_POINT('Origin',(-11.7,0.,0.));
#525=CARTESIAN_POINT('Origin',(-11.7,0.,0.));
#526=CARTESIAN_POINT('',(-9.025,5.35199834589639,-6.55430764334395E-16));
#527=CARTESIAN_POINT('Origin',(-12.2,0.,0.));
#528=CARTESIAN_POINT('',(-12.7,-4.88032367250125,0.));
#529=CARTESIAN_POINT('',(-12.7,4.88032367250125,-5.97667276433171E-16));
#530=CARTESIAN_POINT('Origin',(-12.7,0.,0.));
#531=CARTESIAN_POINT('Origin',(-12.7,0.,0.));
#532=CARTESIAN_POINT('',(-12.2,5.35199834589639,-6.55430764334395E-16));
#533=CARTESIAN_POINT('Origin',(-15.375,0.,0.));
#534=CARTESIAN_POINT('',(-18.05,-5.82367301929153,0.));
#535=CARTESIAN_POINT('',(-18.05,5.82367301929153,-7.13194252235618E-16));
#536=CARTESIAN_POINT('Origin',(-18.05,0.,0.));
#537=CARTESIAN_POINT('Origin',(-18.05,0.,0.));
#538=CARTESIAN_POINT('',(-15.375,5.35199834589639,-6.55430764334395E-16));
#539=CARTESIAN_POINT('Origin',(-18.55,0.,0.));
#540=CARTESIAN_POINT('',(-19.05,-4.88032367250125,0.));
#541=CARTESIAN_POINT('',(-19.05,4.88032367250125,-5.97667276433171E-16));
#542=CARTESIAN_POINT('Origin',(-19.05,0.,0.));
#543=CARTESIAN_POINT('Origin',(-19.05,0.,0.));
#544=CARTESIAN_POINT('',(-18.55,5.35199834589639,-6.55430764334395E-16));
#545=CARTESIAN_POINT('Origin',(-22.225,0.,0.));
#546=CARTESIAN_POINT('',(-25.4,-6.,0.));
#547=CARTESIAN_POINT('',(-25.4,6.,-7.34788079488412E-16));
#548=CARTESIAN_POINT('Origin',(-25.4,0.,0.));
#549=CARTESIAN_POINT('Origin',(-25.4,0.,0.));
#550=CARTESIAN_POINT('',(-22.225,5.44016183625062,-6.66227677960792E-16));
#551=CARTESIAN_POINT('Origin',(-29.3243556699781,0.,0.));
#552=CARTESIAN_POINT('',(-29.3243556699781,6.,-7.34788079488412E-16));
#553=UNCERTAINTY_MEASURE_WITH_UNIT(LENGTH_MEASURE(0.01),#557,
'DISTANCE_ACCURACY_VALUE',
'Maximum model space distance between geometric entities at asserted c
onnectivities');
#554=UNCERTAINTY_MEASURE_WITH_UNIT(LENGTH_MEASURE(0.01),#557,
'DISTANCE_ACCURACY_VALUE',
'Maximum model space distance between geometric entities at asserted c
onnectivities');
#555=(
GEOMETRIC_REPRESENTATION_CONTEXT(3)
GLOBAL_UNCERTAINTY_ASSIGNED_CONTEXT((#553))
GLOBAL_UNIT_ASSIGNED_CONTEXT((#557,#559,#560))
REPRESENTATION_CONTEXT('','3D')
);
#556=(
GEOMETRIC_REPRESENTATION_CONTEXT(3)
GLOBAL_UNCERTAINTY_ASSIGNED_CONTEXT((#554))
GLOBAL_UNIT_ASSIGNED_CONTEXT((#557,#559,#560))
REPRESENTATION_CONTEXT('','3D')
);
#557=(
LENGTH_UNIT()
NAMED_UNIT(*)
SI_UNIT(.MILLI.,.METRE.)
);
#558=(
LENGTH_UNIT()
NAMED_UNIT(*)
SI_UNIT(.CENTI.,.METRE.)
);
#559=(
NAMED_UNIT(*)
PLANE_ANGLE_UNIT()
SI_UNIT($,.RADIAN.)
);
#560=(
NAMED_UNIT(*)
SI_UNIT($,.STERADIAN.)
SOLID_ANGLE_UNIT()
);
#561=SHAPE_DEFINITION_REPRESENTATION(#562,#563);
#562=PRODUCT_DEFINITION_SHAPE('',$,#565);
#563=SHAPE_REPRESENTATION('',(#314),#555);
#564=PRODUCT_DEFINITION_CONTEXT('part definition',#569,'design');
#565=PRODUCT_DEFINITION('FL-RHA25KF','FL-RHA25KF',#566,#564);
#566=PRODUCT_DEFINITION_FORMATION('',$,#571);
#567=PRODUCT_RELATED_PRODUCT_CATEGORY('FL-RHA25KF','FL-RHA25KF',(#571));
#568=APPLICATION_PROTOCOL_DEFINITION('international standard',
'automotive_design',2009,#569);
#569=APPLICATION_CONTEXT(
'Core Data for Automotive Mechanical Design Process');
#570=PRODUCT_CONTEXT('part definition',#569,'mechanical');
#571=PRODUCT('FL-RHA25KF','FL-RHA25KF',$,(#570));
#572=PRESENTATION_STYLE_ASSIGNMENT((#573));
#573=SURFACE_STYLE_USAGE(.BOTH.,#576);
#574=SURFACE_STYLE_RENDERING_WITH_PROPERTIES($,#580,(#575));
#575=SURFACE_STYLE_TRANSPARENT(1.);
#576=SURFACE_SIDE_STYLE('',(#577,#574));
#577=SURFACE_STYLE_FILL_AREA(#578);
#578=FILL_AREA_STYLE('',(#579));
#579=FILL_AREA_STYLE_COLOUR('',#580);
#580=COLOUR_RGB('',0.996078431372549,0.996078431372549,1.);
ENDSEC;
END-ISO-10303-21;
