ISO-10303-21;
HEADER;
/* Generated by software containing ST-Developer
 * from STEP Tools, Inc. (www.steptools.com) 
 */

FILE_DESCRIPTION(
/* description */ (''),
/* implementation_level */ '2;1');

FILE_NAME(
/* name */ 
'G:\\FLANGES & FITTINGS\\Rubber hose adapters\\Step files\\FL-RHA16KF.
stp',
/* time_stamp */ '2019-02-14T12:09:57+00:00',
/* author */ ('paul'),
/* organization */ (''),
/* preprocessor_version */ 'ST-DEVELOPER v17.2',
/* originating_system */ 'Autodesk Inventor 2019',
/* authorisation */ '');

FILE_SCHEMA (('AUTOMOTIVE_DESIGN { 1 0 10303 214 3 1 1 }'));
ENDSEC;

DATA;
#10=MECHANICAL_DESIGN_GEOMETRIC_PRESENTATION_REPRESENTATION('',(#13),#576);
#11=SHAPE_REPRESENTATION_RELATIONSHIP('SRR','None',#583,#12);
#12=ADVANCED_BREP_SHAPE_REPRESENTATION('',(#14),#575);
#13=STYLED_ITEM('',(#592),#14);
#14=MANIFOLD_SOLID_BREP('Solid1',#305);
#15=CYLINDRICAL_SURFACE('',#340,15.);
#16=CYLINDRICAL_SURFACE('',#346,8.6);
#17=CYLINDRICAL_SURFACE('',#352,3.5);
#18=CYLINDRICAL_SURFACE('',#371,6.);
#19=FACE_BOUND('',#43,.T.);
#20=FACE_BOUND('',#48,.T.);
#21=FACE_BOUND('',#51,.T.);
#22=PLANE('',#329);
#23=PLANE('',#343);
#24=PLANE('',#349);
#25=FACE_OUTER_BOUND('',#41,.T.);
#26=FACE_OUTER_BOUND('',#42,.T.);
#27=FACE_OUTER_BOUND('',#44,.T.);
#28=FACE_OUTER_BOUND('',#45,.T.);
#29=FACE_OUTER_BOUND('',#46,.T.);
#30=FACE_OUTER_BOUND('',#47,.T.);
#31=FACE_OUTER_BOUND('',#49,.T.);
#32=FACE_OUTER_BOUND('',#50,.T.);
#33=FACE_OUTER_BOUND('',#52,.T.);
#34=FACE_OUTER_BOUND('',#53,.T.);
#35=FACE_OUTER_BOUND('',#54,.T.);
#36=FACE_OUTER_BOUND('',#55,.T.);
#37=FACE_OUTER_BOUND('',#56,.T.);
#38=FACE_OUTER_BOUND('',#57,.T.);
#39=FACE_OUTER_BOUND('',#58,.T.);
#40=FACE_OUTER_BOUND('',#59,.T.);
#41=EDGE_LOOP('',(#192,#193,#194,#195,#196));
#42=EDGE_LOOP('',(#197));
#43=EDGE_LOOP('',(#198,#199));
#44=EDGE_LOOP('',(#200,#201,#202,#203,#204,#205));
#45=EDGE_LOOP('',(#206,#207,#208,#209,#210,#211));
#46=EDGE_LOOP('',(#212,#213,#214,#215,#216,#217));
#47=EDGE_LOOP('',(#218,#219));
#48=EDGE_LOOP('',(#220,#221));
#49=EDGE_LOOP('',(#222,#223,#224,#225,#226,#227));
#50=EDGE_LOOP('',(#228,#229));
#51=EDGE_LOOP('',(#230,#231));
#52=EDGE_LOOP('',(#232,#233,#234,#235,#236,#237));
#53=EDGE_LOOP('',(#238,#239,#240,#241,#242,#243));
#54=EDGE_LOOP('',(#244,#245,#246,#247,#248,#249));
#55=EDGE_LOOP('',(#250,#251,#252,#253,#254,#255));
#56=EDGE_LOOP('',(#256,#257,#258,#259,#260,#261));
#57=EDGE_LOOP('',(#262,#263,#264,#265,#266,#267));
#58=EDGE_LOOP('',(#268,#269,#270,#271,#272,#273));
#59=EDGE_LOOP('',(#274,#275,#276,#277,#278,#279));
#60=LINE('',#488,#73);
#61=LINE('',#500,#74);
#62=LINE('',#507,#75);
#63=LINE('',#516,#76);
#64=LINE('',#524,#77);
#65=LINE('',#534,#78);
#66=LINE('',#540,#79);
#67=LINE('',#546,#80);
#68=LINE('',#552,#81);
#69=LINE('',#558,#82);
#70=LINE('',#564,#83);
#71=LINE('',#570,#84);
#72=LINE('',#572,#85);
#73=VECTOR('',#380,4.79873571691798);
#74=VECTOR('',#395,5.35199834589639);
#75=VECTOR('',#402,10.5);
#76=VECTOR('',#413,15.);
#77=VECTOR('',#422,8.6);
#78=VECTOR('',#435,3.5);
#79=VECTOR('',#442,5.35199834589639);
#80=VECTOR('',#449,5.35199834589639);
#81=VECTOR('',#456,5.35199834589639);
#82=VECTOR('',#463,5.35199834589639);
#83=VECTOR('',#470,5.35199834589639);
#84=VECTOR('',#477,5.44016183625062);
#85=VECTOR('',#480,6.);
#86=CIRCLE('',#326,4.96714776133471);
#87=CIRCLE('',#327,4.96714776133471);
#88=CIRCLE('',#328,4.63032367250125);
#89=CIRCLE('',#330,3.5);
#90=CIRCLE('',#331,3.5);
#91=CIRCLE('',#333,5.82367301929153);
#92=CIRCLE('',#334,5.82367301929153);
#93=CIRCLE('',#336,15.);
#94=CIRCLE('',#337,15.);
#95=CIRCLE('',#338,6.);
#96=CIRCLE('',#339,6.);
#97=CIRCLE('',#341,15.);
#98=CIRCLE('',#342,15.);
#99=CIRCLE('',#344,8.6);
#100=CIRCLE('',#345,8.6);
#101=CIRCLE('',#347,8.6);
#102=CIRCLE('',#348,8.6);
#103=CIRCLE('',#350,3.5);
#104=CIRCLE('',#351,3.5);
#105=CIRCLE('',#354,4.88032367250125);
#106=CIRCLE('',#355,4.88032367250125);
#107=CIRCLE('',#357,5.82367301929153);
#108=CIRCLE('',#358,5.82367301929153);
#109=CIRCLE('',#360,4.88032367250125);
#110=CIRCLE('',#361,4.88032367250125);
#111=CIRCLE('',#363,5.82367301929153);
#112=CIRCLE('',#364,5.82367301929153);
#113=CIRCLE('',#366,4.88032367250125);
#114=CIRCLE('',#367,4.88032367250125);
#115=CIRCLE('',#369,6.);
#116=CIRCLE('',#370,6.);
#117=VERTEX_POINT('',#483);
#118=VERTEX_POINT('',#484);
#119=VERTEX_POINT('',#487);
#120=VERTEX_POINT('',#491);
#121=VERTEX_POINT('',#492);
#122=VERTEX_POINT('',#496);
#123=VERTEX_POINT('',#497);
#124=VERTEX_POINT('',#502);
#125=VERTEX_POINT('',#503);
#126=VERTEX_POINT('',#506);
#127=VERTEX_POINT('',#508);
#128=VERTEX_POINT('',#512);
#129=VERTEX_POINT('',#513);
#130=VERTEX_POINT('',#518);
#131=VERTEX_POINT('',#519);
#132=VERTEX_POINT('',#523);
#133=VERTEX_POINT('',#525);
#134=VERTEX_POINT('',#529);
#135=VERTEX_POINT('',#530);
#136=VERTEX_POINT('',#536);
#137=VERTEX_POINT('',#537);
#138=VERTEX_POINT('',#542);
#139=VERTEX_POINT('',#543);
#140=VERTEX_POINT('',#548);
#141=VERTEX_POINT('',#549);
#142=VERTEX_POINT('',#554);
#143=VERTEX_POINT('',#555);
#144=VERTEX_POINT('',#560);
#145=VERTEX_POINT('',#561);
#146=VERTEX_POINT('',#566);
#147=VERTEX_POINT('',#567);
#148=EDGE_CURVE('',#117,#118,#86,.T.);
#149=EDGE_CURVE('',#118,#117,#87,.T.);
#150=EDGE_CURVE('',#117,#119,#60,.T.);
#151=EDGE_CURVE('',#119,#119,#88,.T.);
#152=EDGE_CURVE('',#120,#121,#89,.T.);
#153=EDGE_CURVE('',#121,#120,#90,.T.);
#154=EDGE_CURVE('',#122,#123,#91,.T.);
#155=EDGE_CURVE('',#123,#122,#92,.T.);
#156=EDGE_CURVE('',#123,#118,#61,.T.);
#157=EDGE_CURVE('',#124,#125,#93,.T.);
#158=EDGE_CURVE('',#125,#124,#94,.T.);
#159=EDGE_CURVE('',#125,#126,#62,.T.);
#160=EDGE_CURVE('',#126,#127,#95,.T.);
#161=EDGE_CURVE('',#127,#126,#96,.T.);
#162=EDGE_CURVE('',#128,#129,#97,.T.);
#163=EDGE_CURVE('',#129,#128,#98,.T.);
#164=EDGE_CURVE('',#129,#125,#63,.T.);
#165=EDGE_CURVE('',#130,#131,#99,.T.);
#166=EDGE_CURVE('',#131,#130,#100,.T.);
#167=EDGE_CURVE('',#131,#132,#64,.T.);
#168=EDGE_CURVE('',#133,#132,#101,.T.);
#169=EDGE_CURVE('',#132,#133,#102,.T.);
#170=EDGE_CURVE('',#134,#135,#103,.T.);
#171=EDGE_CURVE('',#135,#134,#104,.T.);
#172=EDGE_CURVE('',#135,#121,#65,.T.);
#173=EDGE_CURVE('',#136,#137,#105,.T.);
#174=EDGE_CURVE('',#137,#136,#106,.T.);
#175=EDGE_CURVE('',#137,#123,#66,.T.);
#176=EDGE_CURVE('',#138,#139,#107,.T.);
#177=EDGE_CURVE('',#139,#138,#108,.T.);
#178=EDGE_CURVE('',#139,#137,#67,.T.);
#179=EDGE_CURVE('',#140,#141,#109,.T.);
#180=EDGE_CURVE('',#141,#140,#110,.T.);
#181=EDGE_CURVE('',#141,#139,#68,.T.);
#182=EDGE_CURVE('',#142,#143,#111,.T.);
#183=EDGE_CURVE('',#143,#142,#112,.T.);
#184=EDGE_CURVE('',#143,#141,#69,.T.);
#185=EDGE_CURVE('',#144,#145,#113,.T.);
#186=EDGE_CURVE('',#145,#144,#114,.T.);
#187=EDGE_CURVE('',#145,#143,#70,.T.);
#188=EDGE_CURVE('',#146,#147,#115,.T.);
#189=EDGE_CURVE('',#147,#146,#116,.T.);
#190=EDGE_CURVE('',#147,#145,#71,.T.);
#191=EDGE_CURVE('',#126,#147,#72,.T.);
#192=ORIENTED_EDGE('',*,*,#148,.T.);
#193=ORIENTED_EDGE('',*,*,#149,.T.);
#194=ORIENTED_EDGE('',*,*,#150,.T.);
#195=ORIENTED_EDGE('',*,*,#151,.T.);
#196=ORIENTED_EDGE('',*,*,#150,.F.);
#197=ORIENTED_EDGE('',*,*,#151,.F.);
#198=ORIENTED_EDGE('',*,*,#152,.T.);
#199=ORIENTED_EDGE('',*,*,#153,.T.);
#200=ORIENTED_EDGE('',*,*,#154,.F.);
#201=ORIENTED_EDGE('',*,*,#155,.F.);
#202=ORIENTED_EDGE('',*,*,#156,.T.);
#203=ORIENTED_EDGE('',*,*,#148,.F.);
#204=ORIENTED_EDGE('',*,*,#149,.F.);
#205=ORIENTED_EDGE('',*,*,#156,.F.);
#206=ORIENTED_EDGE('',*,*,#157,.F.);
#207=ORIENTED_EDGE('',*,*,#158,.F.);
#208=ORIENTED_EDGE('',*,*,#159,.T.);
#209=ORIENTED_EDGE('',*,*,#160,.T.);
#210=ORIENTED_EDGE('',*,*,#161,.T.);
#211=ORIENTED_EDGE('',*,*,#159,.F.);
#212=ORIENTED_EDGE('',*,*,#162,.F.);
#213=ORIENTED_EDGE('',*,*,#163,.F.);
#214=ORIENTED_EDGE('',*,*,#164,.T.);
#215=ORIENTED_EDGE('',*,*,#158,.T.);
#216=ORIENTED_EDGE('',*,*,#157,.T.);
#217=ORIENTED_EDGE('',*,*,#164,.F.);
#218=ORIENTED_EDGE('',*,*,#162,.T.);
#219=ORIENTED_EDGE('',*,*,#163,.T.);
#220=ORIENTED_EDGE('',*,*,#165,.F.);
#221=ORIENTED_EDGE('',*,*,#166,.F.);
#222=ORIENTED_EDGE('',*,*,#165,.T.);
#223=ORIENTED_EDGE('',*,*,#167,.T.);
#224=ORIENTED_EDGE('',*,*,#168,.F.);
#225=ORIENTED_EDGE('',*,*,#169,.F.);
#226=ORIENTED_EDGE('',*,*,#167,.F.);
#227=ORIENTED_EDGE('',*,*,#166,.T.);
#228=ORIENTED_EDGE('',*,*,#168,.T.);
#229=ORIENTED_EDGE('',*,*,#169,.T.);
#230=ORIENTED_EDGE('',*,*,#170,.F.);
#231=ORIENTED_EDGE('',*,*,#171,.F.);
#232=ORIENTED_EDGE('',*,*,#170,.T.);
#233=ORIENTED_EDGE('',*,*,#172,.T.);
#234=ORIENTED_EDGE('',*,*,#152,.F.);
#235=ORIENTED_EDGE('',*,*,#153,.F.);
#236=ORIENTED_EDGE('',*,*,#172,.F.);
#237=ORIENTED_EDGE('',*,*,#171,.T.);
#238=ORIENTED_EDGE('',*,*,#173,.F.);
#239=ORIENTED_EDGE('',*,*,#174,.F.);
#240=ORIENTED_EDGE('',*,*,#175,.T.);
#241=ORIENTED_EDGE('',*,*,#155,.T.);
#242=ORIENTED_EDGE('',*,*,#154,.T.);
#243=ORIENTED_EDGE('',*,*,#175,.F.);
#244=ORIENTED_EDGE('',*,*,#176,.F.);
#245=ORIENTED_EDGE('',*,*,#177,.F.);
#246=ORIENTED_EDGE('',*,*,#178,.T.);
#247=ORIENTED_EDGE('',*,*,#174,.T.);
#248=ORIENTED_EDGE('',*,*,#173,.T.);
#249=ORIENTED_EDGE('',*,*,#178,.F.);
#250=ORIENTED_EDGE('',*,*,#179,.F.);
#251=ORIENTED_EDGE('',*,*,#180,.F.);
#252=ORIENTED_EDGE('',*,*,#181,.T.);
#253=ORIENTED_EDGE('',*,*,#177,.T.);
#254=ORIENTED_EDGE('',*,*,#176,.T.);
#255=ORIENTED_EDGE('',*,*,#181,.F.);
#256=ORIENTED_EDGE('',*,*,#182,.F.);
#257=ORIENTED_EDGE('',*,*,#183,.F.);
#258=ORIENTED_EDGE('',*,*,#184,.T.);
#259=ORIENTED_EDGE('',*,*,#180,.T.);
#260=ORIENTED_EDGE('',*,*,#179,.T.);
#261=ORIENTED_EDGE('',*,*,#184,.F.);
#262=ORIENTED_EDGE('',*,*,#185,.F.);
#263=ORIENTED_EDGE('',*,*,#186,.F.);
#264=ORIENTED_EDGE('',*,*,#187,.T.);
#265=ORIENTED_EDGE('',*,*,#183,.T.);
#266=ORIENTED_EDGE('',*,*,#182,.T.);
#267=ORIENTED_EDGE('',*,*,#187,.F.);
#268=ORIENTED_EDGE('',*,*,#188,.F.);
#269=ORIENTED_EDGE('',*,*,#189,.F.);
#270=ORIENTED_EDGE('',*,*,#190,.T.);
#271=ORIENTED_EDGE('',*,*,#186,.T.);
#272=ORIENTED_EDGE('',*,*,#185,.T.);
#273=ORIENTED_EDGE('',*,*,#190,.F.);
#274=ORIENTED_EDGE('',*,*,#161,.F.);
#275=ORIENTED_EDGE('',*,*,#160,.F.);
#276=ORIENTED_EDGE('',*,*,#191,.T.);
#277=ORIENTED_EDGE('',*,*,#189,.T.);
#278=ORIENTED_EDGE('',*,*,#188,.T.);
#279=ORIENTED_EDGE('',*,*,#191,.F.);
#280=CONICAL_SURFACE('',#325,4.79873571691798,0.599934248505861);
#281=CONICAL_SURFACE('',#332,5.35199834589639,0.174532925199433);
#282=CONICAL_SURFACE('',#335,10.5,1.30899694126109);
#283=CONICAL_SURFACE('',#353,5.35199834589639,0.756255377228974);
#284=CONICAL_SURFACE('',#356,5.35199834589639,0.174532925199433);
#285=CONICAL_SURFACE('',#359,5.35199834589639,0.756255377228976);
#286=CONICAL_SURFACE('',#362,5.35199834589639,0.174532925199433);
#287=CONICAL_SURFACE('',#365,5.35199834589639,0.756255377228973);
#288=CONICAL_SURFACE('',#368,5.44016183625062,0.174532925199433);
#289=ADVANCED_FACE('',(#25),#280,.T.);
#290=ADVANCED_FACE('',(#26,#19),#22,.T.);
#291=ADVANCED_FACE('',(#27),#281,.T.);
#292=ADVANCED_FACE('',(#28),#282,.T.);
#293=ADVANCED_FACE('',(#29),#15,.T.);
#294=ADVANCED_FACE('',(#30,#20),#23,.T.);
#295=ADVANCED_FACE('',(#31),#16,.F.);
#296=ADVANCED_FACE('',(#32,#21),#24,.T.);
#297=ADVANCED_FACE('',(#33),#17,.F.);
#298=ADVANCED_FACE('',(#34),#283,.T.);
#299=ADVANCED_FACE('',(#35),#284,.T.);
#300=ADVANCED_FACE('',(#36),#285,.T.);
#301=ADVANCED_FACE('',(#37),#286,.T.);
#302=ADVANCED_FACE('',(#38),#287,.T.);
#303=ADVANCED_FACE('',(#39),#288,.T.);
#304=ADVANCED_FACE('',(#40),#18,.T.);
#305=CLOSED_SHELL('',(#289,#290,#291,#292,#293,#294,#295,#296,#297,#298,
#299,#300,#301,#302,#303,#304));
#306=DERIVED_UNIT_ELEMENT(#308,1.);
#307=DERIVED_UNIT_ELEMENT(#578,3.);
#308=(
MASS_UNIT()
NAMED_UNIT(*)
SI_UNIT($,.GRAM.)
);
#309=DERIVED_UNIT((#306,#307));
#310=MEASURE_REPRESENTATION_ITEM('density measure',
POSITIVE_RATIO_MEASURE(2.7),#309);
#311=PROPERTY_DEFINITION_REPRESENTATION(#316,#313);
#312=PROPERTY_DEFINITION_REPRESENTATION(#317,#314);
#313=REPRESENTATION('material name',(#315),#575);
#314=REPRESENTATION('density',(#310),#575);
#315=DESCRIPTIVE_REPRESENTATION_ITEM('Aluminum 6061','Aluminum 6061');
#316=PROPERTY_DEFINITION('material property','material name',#585);
#317=PROPERTY_DEFINITION('material property','density of part',#585);
#318=DATE_TIME_ROLE('creation_date');
#319=APPLIED_DATE_AND_TIME_ASSIGNMENT(#320,#318,(#585));
#320=DATE_AND_TIME(#321,#322);
#321=CALENDAR_DATE(2018,2,1);
#322=LOCAL_TIME(15,28,12.,#323);
#323=COORDINATED_UNIVERSAL_TIME_OFFSET(0,0,.BEHIND.);
#324=AXIS2_PLACEMENT_3D('placement',#481,#372,#373);
#325=AXIS2_PLACEMENT_3D('',#482,#374,#375);
#326=AXIS2_PLACEMENT_3D('',#485,#376,#377);
#327=AXIS2_PLACEMENT_3D('',#486,#378,#379);
#328=AXIS2_PLACEMENT_3D('',#489,#381,#382);
#329=AXIS2_PLACEMENT_3D('',#490,#383,#384);
#330=AXIS2_PLACEMENT_3D('',#493,#385,#386);
#331=AXIS2_PLACEMENT_3D('',#494,#387,#388);
#332=AXIS2_PLACEMENT_3D('',#495,#389,#390);
#333=AXIS2_PLACEMENT_3D('',#498,#391,#392);
#334=AXIS2_PLACEMENT_3D('',#499,#393,#394);
#335=AXIS2_PLACEMENT_3D('',#501,#396,#397);
#336=AXIS2_PLACEMENT_3D('',#504,#398,#399);
#337=AXIS2_PLACEMENT_3D('',#505,#400,#401);
#338=AXIS2_PLACEMENT_3D('',#509,#403,#404);
#339=AXIS2_PLACEMENT_3D('',#510,#405,#406);
#340=AXIS2_PLACEMENT_3D('',#511,#407,#408);
#341=AXIS2_PLACEMENT_3D('',#514,#409,#410);
#342=AXIS2_PLACEMENT_3D('',#515,#411,#412);
#343=AXIS2_PLACEMENT_3D('',#517,#414,#415);
#344=AXIS2_PLACEMENT_3D('',#520,#416,#417);
#345=AXIS2_PLACEMENT_3D('',#521,#418,#419);
#346=AXIS2_PLACEMENT_3D('',#522,#420,#421);
#347=AXIS2_PLACEMENT_3D('',#526,#423,#424);
#348=AXIS2_PLACEMENT_3D('',#527,#425,#426);
#349=AXIS2_PLACEMENT_3D('',#528,#427,#428);
#350=AXIS2_PLACEMENT_3D('',#531,#429,#430);
#351=AXIS2_PLACEMENT_3D('',#532,#431,#432);
#352=AXIS2_PLACEMENT_3D('',#533,#433,#434);
#353=AXIS2_PLACEMENT_3D('',#535,#436,#437);
#354=AXIS2_PLACEMENT_3D('',#538,#438,#439);
#355=AXIS2_PLACEMENT_3D('',#539,#440,#441);
#356=AXIS2_PLACEMENT_3D('',#541,#443,#444);
#357=AXIS2_PLACEMENT_3D('',#544,#445,#446);
#358=AXIS2_PLACEMENT_3D('',#545,#447,#448);
#359=AXIS2_PLACEMENT_3D('',#547,#450,#451);
#360=AXIS2_PLACEMENT_3D('',#550,#452,#453);
#361=AXIS2_PLACEMENT_3D('',#551,#454,#455);
#362=AXIS2_PLACEMENT_3D('',#553,#457,#458);
#363=AXIS2_PLACEMENT_3D('',#556,#459,#460);
#364=AXIS2_PLACEMENT_3D('',#557,#461,#462);
#365=AXIS2_PLACEMENT_3D('',#559,#464,#465);
#366=AXIS2_PLACEMENT_3D('',#562,#466,#467);
#367=AXIS2_PLACEMENT_3D('',#563,#468,#469);
#368=AXIS2_PLACEMENT_3D('',#565,#471,#472);
#369=AXIS2_PLACEMENT_3D('',#568,#473,#474);
#370=AXIS2_PLACEMENT_3D('',#569,#475,#476);
#371=AXIS2_PLACEMENT_3D('',#571,#478,#479);
#372=DIRECTION('axis',(0.,0.,1.));
#373=DIRECTION('refdir',(1.,0.,0.));
#374=DIRECTION('center_axis',(-1.,0.,-6.17684171169911E-16));
#375=DIRECTION('ref_axis',(0.,1.,-3.16906471081791E-17));
#376=DIRECTION('center_axis',(1.,0.,0.));
#377=DIRECTION('ref_axis',(0.,1.,-6.12323399573677E-17));
#378=DIRECTION('center_axis',(1.,0.,0.));
#379=DIRECTION('ref_axis',(0.,1.,-6.12323399573677E-17));
#380=DIRECTION('',(0.825372739211862,0.56458820512468,4.22785396932043E-16));
#381=DIRECTION('center_axis',(-1.,0.,0.));
#382=DIRECTION('ref_axis',(0.,1.,0.));
#383=DIRECTION('center_axis',(1.,0.,0.));
#384=DIRECTION('ref_axis',(0.,0.,-1.));
#385=DIRECTION('center_axis',(-1.,0.,0.));
#386=DIRECTION('ref_axis',(0.,0.,1.));
#387=DIRECTION('center_axis',(-1.,0.,0.));
#388=DIRECTION('ref_axis',(0.,0.,1.));
#389=DIRECTION('center_axis',(-1.,0.,0.));
#390=DIRECTION('ref_axis',(0.,-1.,0.));
#391=DIRECTION('center_axis',(-1.,0.,0.));
#392=DIRECTION('ref_axis',(0.,0.,1.));
#393=DIRECTION('center_axis',(-1.,0.,0.));
#394=DIRECTION('ref_axis',(0.,0.,1.));
#395=DIRECTION('',(0.984807753012208,-0.17364817766693,2.12657684957577E-17));
#396=DIRECTION('center_axis',(-1.,0.,0.));
#397=DIRECTION('ref_axis',(0.,-1.,0.));
#398=DIRECTION('center_axis',(-1.,0.,0.));
#399=DIRECTION('ref_axis',(0.,0.,1.));
#400=DIRECTION('center_axis',(-1.,0.,0.));
#401=DIRECTION('ref_axis',(0.,0.,1.));
#402=DIRECTION('',(0.258819042914368,-0.965925826875382,1.1829179720967E-16));
#403=DIRECTION('center_axis',(-1.,0.,0.));
#404=DIRECTION('ref_axis',(0.,0.,1.));
#405=DIRECTION('center_axis',(-1.,0.,0.));
#406=DIRECTION('ref_axis',(0.,0.,1.));
#407=DIRECTION('center_axis',(-1.,0.,0.));
#408=DIRECTION('ref_axis',(0.,-1.,0.));
#409=DIRECTION('center_axis',(-1.,0.,0.));
#410=DIRECTION('ref_axis',(0.,0.,1.));
#411=DIRECTION('center_axis',(-1.,0.,0.));
#412=DIRECTION('ref_axis',(0.,0.,1.));
#413=DIRECTION('',(1.,0.,0.));
#414=DIRECTION('center_axis',(-1.,0.,0.));
#415=DIRECTION('ref_axis',(0.,0.,1.));
#416=DIRECTION('center_axis',(-1.,0.,0.));
#417=DIRECTION('ref_axis',(0.,0.,1.));
#418=DIRECTION('center_axis',(-1.,0.,0.));
#419=DIRECTION('ref_axis',(0.,0.,1.));
#420=DIRECTION('center_axis',(-1.,0.,0.));
#421=DIRECTION('ref_axis',(0.,-1.,0.));
#422=DIRECTION('',(1.,0.,0.));
#423=DIRECTION('center_axis',(-1.,0.,0.));
#424=DIRECTION('ref_axis',(0.,0.,1.));
#425=DIRECTION('center_axis',(-1.,0.,0.));
#426=DIRECTION('ref_axis',(0.,0.,1.));
#427=DIRECTION('center_axis',(-1.,0.,0.));
#428=DIRECTION('ref_axis',(0.,0.,1.));
#429=DIRECTION('center_axis',(-1.,0.,0.));
#430=DIRECTION('ref_axis',(0.,0.,1.));
#431=DIRECTION('center_axis',(-1.,0.,0.));
#432=DIRECTION('ref_axis',(0.,0.,1.));
#433=DIRECTION('center_axis',(-1.,0.,0.));
#434=DIRECTION('ref_axis',(0.,-1.,0.));
#435=DIRECTION('',(1.,0.,0.));
#436=DIRECTION('center_axis',(1.,0.,0.));
#437=DIRECTION('ref_axis',(0.,-1.,0.));
#438=DIRECTION('center_axis',(-1.,0.,0.));
#439=DIRECTION('ref_axis',(0.,0.,1.));
#440=DIRECTION('center_axis',(-1.,0.,0.));
#441=DIRECTION('ref_axis',(0.,0.,1.));
#442=DIRECTION('',(0.727410673751048,0.686202383931334,-8.40355553048792E-17));
#443=DIRECTION('center_axis',(-1.,0.,0.));
#444=DIRECTION('ref_axis',(0.,-1.,0.));
#445=DIRECTION('center_axis',(-1.,0.,0.));
#446=DIRECTION('ref_axis',(0.,0.,1.));
#447=DIRECTION('center_axis',(-1.,0.,0.));
#448=DIRECTION('ref_axis',(0.,0.,1.));
#449=DIRECTION('',(0.984807753012208,-0.17364817766693,2.12657684957577E-17));
#450=DIRECTION('center_axis',(1.,0.,0.));
#451=DIRECTION('ref_axis',(0.,-1.,0.));
#452=DIRECTION('center_axis',(-1.,0.,0.));
#453=DIRECTION('ref_axis',(0.,0.,1.));
#454=DIRECTION('center_axis',(-1.,0.,0.));
#455=DIRECTION('ref_axis',(0.,0.,1.));
#456=DIRECTION('',(0.727410673751046,0.686202383931336,-8.40355553048794E-17));
#457=DIRECTION('center_axis',(-1.,0.,0.));
#458=DIRECTION('ref_axis',(0.,-1.,0.));
#459=DIRECTION('center_axis',(-1.,0.,0.));
#460=DIRECTION('ref_axis',(0.,0.,1.));
#461=DIRECTION('center_axis',(-1.,0.,0.));
#462=DIRECTION('ref_axis',(0.,0.,1.));
#463=DIRECTION('',(0.984807753012208,-0.17364817766693,2.12657684957577E-17));
#464=DIRECTION('center_axis',(1.,0.,0.));
#465=DIRECTION('ref_axis',(0.,-1.,0.));
#466=DIRECTION('center_axis',(-1.,0.,0.));
#467=DIRECTION('ref_axis',(0.,0.,1.));
#468=DIRECTION('center_axis',(-1.,0.,0.));
#469=DIRECTION('ref_axis',(0.,0.,1.));
#470=DIRECTION('',(0.727410673751048,0.686202383931334,-8.40355553048791E-17));
#471=DIRECTION('center_axis',(-1.,0.,0.));
#472=DIRECTION('ref_axis',(0.,-1.,0.));
#473=DIRECTION('center_axis',(-1.,0.,0.));
#474=DIRECTION('ref_axis',(0.,0.,1.));
#475=DIRECTION('center_axis',(-1.,0.,0.));
#476=DIRECTION('ref_axis',(0.,0.,1.));
#477=DIRECTION('',(0.984807753012208,-0.17364817766693,2.12657684957577E-17));
#478=DIRECTION('center_axis',(-1.,0.,0.));
#479=DIRECTION('ref_axis',(0.,-1.,0.));
#480=DIRECTION('',(1.,0.,0.));
#481=CARTESIAN_POINT('',(0.,0.,0.));
#482=CARTESIAN_POINT('Origin',(-0.246201938253051,0.,-1.52075040170262E-16));
#483=CARTESIAN_POINT('',(-0.492403876506104,-4.96714776133471,-6.0830016068105E-16));
#484=CARTESIAN_POINT('',(-0.492403876506104,4.96714776133471,-6.0830016068105E-16));
#485=CARTESIAN_POINT('Origin',(-0.492403876506104,0.,-3.04150080340525E-16));
#486=CARTESIAN_POINT('Origin',(-0.492403876506104,0.,-3.04150080340525E-16));
#487=CARTESIAN_POINT('',(1.11022302462516E-15,-4.63032367250125,5.67051106454487E-16));
#488=CARTESIAN_POINT('',(-0.246201938253051,-4.79873571691798,5.87675633567769E-16));
#489=CARTESIAN_POINT('Origin',(1.11022302462516E-15,0.,0.));
#490=CARTESIAN_POINT('Origin',(1.11022302462516E-15,-4.88032367250125,0.));
#491=CARTESIAN_POINT('',(4.25888148103555E-16,-3.5,0.));
#492=CARTESIAN_POINT('',(0.,3.5,-4.28626379701574E-16));
#493=CARTESIAN_POINT('Origin',(0.,0.,0.));
#494=CARTESIAN_POINT('Origin',(0.,0.,0.));
#495=CARTESIAN_POINT('Origin',(-2.675,0.,0.));
#496=CARTESIAN_POINT('',(-5.34999999999999,-5.82367301929153,0.));
#497=CARTESIAN_POINT('',(-5.34999999999999,5.82367301929153,-7.13194252235618E-16));
#498=CARTESIAN_POINT('Origin',(-5.34999999999999,0.,0.));
#499=CARTESIAN_POINT('Origin',(-5.34999999999999,0.,0.));
#500=CARTESIAN_POINT('',(-2.675,5.35199834589639,-6.55430764334395E-16));
#501=CARTESIAN_POINT('Origin',(-35.7942286449859,0.,0.));
#502=CARTESIAN_POINT('',(-37.,-15.,0.));
#503=CARTESIAN_POINT('',(-37.,15.,-1.83697019872103E-15));
#504=CARTESIAN_POINT('Origin',(-37.,0.,0.));
#505=CARTESIAN_POINT('Origin',(-37.,0.,0.));
#506=CARTESIAN_POINT('',(-34.5884572899718,6.,-7.34788079488412E-16));
#507=CARTESIAN_POINT('',(-35.7942286449859,10.5,-1.28587913910472E-15));
#508=CARTESIAN_POINT('',(-34.5884572899718,-6.,0.));
#509=CARTESIAN_POINT('Origin',(-34.5884572899718,0.,0.));
#510=CARTESIAN_POINT('Origin',(-34.5884572899718,0.,0.));
#511=CARTESIAN_POINT('Origin',(-38.5,0.,0.));
#512=CARTESIAN_POINT('',(-40.,-15.,0.));
#513=CARTESIAN_POINT('',(-40.,15.,-1.83697019872103E-15));
#514=CARTESIAN_POINT('Origin',(-40.,0.,0.));
#515=CARTESIAN_POINT('Origin',(-40.,0.,0.));
#516=CARTESIAN_POINT('',(-38.5,15.,-1.83697019872103E-15));
#517=CARTESIAN_POINT('Origin',(-40.,-8.6,0.));
#518=CARTESIAN_POINT('',(-40.,-8.6,0.));
#519=CARTESIAN_POINT('',(-40.,8.6,-1.05319624726672E-15));
#520=CARTESIAN_POINT('Origin',(-40.,0.,0.));
#521=CARTESIAN_POINT('Origin',(-40.,0.,0.));
#522=CARTESIAN_POINT('Origin',(-38.75,0.,0.));
#523=CARTESIAN_POINT('',(-37.5,8.6,-1.05319624726672E-15));
#524=CARTESIAN_POINT('',(-38.75,8.6,-1.05319624726672E-15));
#525=CARTESIAN_POINT('',(-37.5,-8.6,0.));
#526=CARTESIAN_POINT('Origin',(-37.5,0.,0.));
#527=CARTESIAN_POINT('Origin',(-37.5,0.,0.));
#528=CARTESIAN_POINT('Origin',(-37.5,-3.5,0.));
#529=CARTESIAN_POINT('',(-37.5,-3.5,0.));
#530=CARTESIAN_POINT('',(-37.5,3.5,-4.28626379701574E-16));
#531=CARTESIAN_POINT('Origin',(-37.5,0.,0.));
#532=CARTESIAN_POINT('Origin',(-37.5,0.,0.));
#533=CARTESIAN_POINT('Origin',(-18.75,0.,0.));
#534=CARTESIAN_POINT('',(-18.75,3.5,-4.28626379701574E-16));
#535=CARTESIAN_POINT('Origin',(-5.85,0.,0.));
#536=CARTESIAN_POINT('',(-6.34999999999999,-4.88032367250125,0.));
#537=CARTESIAN_POINT('',(-6.34999999999999,4.88032367250125,-5.97667276433171E-16));
#538=CARTESIAN_POINT('Origin',(-6.34999999999999,0.,0.));
#539=CARTESIAN_POINT('Origin',(-6.34999999999999,0.,0.));
#540=CARTESIAN_POINT('',(-5.85,5.35199834589639,-6.55430764334395E-16));
#541=CARTESIAN_POINT('Origin',(-9.025,0.,0.));
#542=CARTESIAN_POINT('',(-11.7,-5.82367301929153,0.));
#543=CARTESIAN_POINT('',(-11.7,5.82367301929153,-7.13194252235618E-16));
#544=CARTESIAN_POINT('Origin',(-11.7,0.,0.));
#545=CARTESIAN_POINT('Origin',(-11.7,0.,0.));
#546=CARTESIAN_POINT('',(-9.025,5.35199834589639,-6.55430764334395E-16));
#547=CARTESIAN_POINT('Origin',(-12.2,0.,0.));
#548=CARTESIAN_POINT('',(-12.7,-4.88032367250125,0.));
#549=CARTESIAN_POINT('',(-12.7,4.88032367250125,-5.97667276433171E-16));
#550=CARTESIAN_POINT('Origin',(-12.7,0.,0.));
#551=CARTESIAN_POINT('Origin',(-12.7,0.,0.));
#552=CARTESIAN_POINT('',(-12.2,5.35199834589639,-6.55430764334395E-16));
#553=CARTESIAN_POINT('Origin',(-15.375,0.,0.));
#554=CARTESIAN_POINT('',(-18.05,-5.82367301929153,0.));
#555=CARTESIAN_POINT('',(-18.05,5.82367301929153,-7.13194252235618E-16));
#556=CARTESIAN_POINT('Origin',(-18.05,0.,0.));
#557=CARTESIAN_POINT('Origin',(-18.05,0.,0.));
#558=CARTESIAN_POINT('',(-15.375,5.35199834589639,-6.55430764334395E-16));
#559=CARTESIAN_POINT('Origin',(-18.55,0.,0.));
#560=CARTESIAN_POINT('',(-19.05,-4.88032367250125,0.));
#561=CARTESIAN_POINT('',(-19.05,4.88032367250125,-5.97667276433171E-16));
#562=CARTESIAN_POINT('Origin',(-19.05,0.,0.));
#563=CARTESIAN_POINT('Origin',(-19.05,0.,0.));
#564=CARTESIAN_POINT('',(-18.55,5.35199834589639,-6.55430764334395E-16));
#565=CARTESIAN_POINT('Origin',(-22.225,0.,0.));
#566=CARTESIAN_POINT('',(-25.4,-6.,0.));
#567=CARTESIAN_POINT('',(-25.4,6.,-7.34788079488412E-16));
#568=CARTESIAN_POINT('Origin',(-25.4,0.,0.));
#569=CARTESIAN_POINT('Origin',(-25.4,0.,0.));
#570=CARTESIAN_POINT('',(-22.225,5.44016183625062,-6.66227677960792E-16));
#571=CARTESIAN_POINT('Origin',(-29.9942286449859,0.,0.));
#572=CARTESIAN_POINT('',(-29.9942286449859,6.,-7.34788079488412E-16));
#573=UNCERTAINTY_MEASURE_WITH_UNIT(LENGTH_MEASURE(0.01),#577,
'DISTANCE_ACCURACY_VALUE',
'Maximum model space distance between geometric entities at asserted c
onnectivities');
#574=UNCERTAINTY_MEASURE_WITH_UNIT(LENGTH_MEASURE(0.01),#577,
'DISTANCE_ACCURACY_VALUE',
'Maximum model space distance between geometric entities at asserted c
onnectivities');
#575=(
GEOMETRIC_REPRESENTATION_CONTEXT(3)
GLOBAL_UNCERTAINTY_ASSIGNED_CONTEXT((#573))
GLOBAL_UNIT_ASSIGNED_CONTEXT((#577,#579,#580))
REPRESENTATION_CONTEXT('','3D')
);
#576=(
GEOMETRIC_REPRESENTATION_CONTEXT(3)
GLOBAL_UNCERTAINTY_ASSIGNED_CONTEXT((#574))
GLOBAL_UNIT_ASSIGNED_CONTEXT((#577,#579,#580))
REPRESENTATION_CONTEXT('','3D')
);
#577=(
LENGTH_UNIT()
NAMED_UNIT(*)
SI_UNIT(.MILLI.,.METRE.)
);
#578=(
LENGTH_UNIT()
NAMED_UNIT(*)
SI_UNIT(.CENTI.,.METRE.)
);
#579=(
NAMED_UNIT(*)
PLANE_ANGLE_UNIT()
SI_UNIT($,.RADIAN.)
);
#580=(
NAMED_UNIT(*)
SI_UNIT($,.STERADIAN.)
SOLID_ANGLE_UNIT()
);
#581=SHAPE_DEFINITION_REPRESENTATION(#582,#583);
#582=PRODUCT_DEFINITION_SHAPE('',$,#585);
#583=SHAPE_REPRESENTATION('',(#324),#575);
#584=PRODUCT_DEFINITION_CONTEXT('part definition',#589,'design');
#585=PRODUCT_DEFINITION('FL-RHA16KF','FL-RHA16KF',#586,#584);
#586=PRODUCT_DEFINITION_FORMATION('',$,#591);
#587=PRODUCT_RELATED_PRODUCT_CATEGORY('FL-RHA16KF','FL-RHA16KF',(#591));
#588=APPLICATION_PROTOCOL_DEFINITION('international standard',
'automotive_design',2009,#589);
#589=APPLICATION_CONTEXT(
'Core Data for Automotive Mechanical Design Process');
#590=PRODUCT_CONTEXT('part definition',#589,'mechanical');
#591=PRODUCT('FL-RHA16KF','FL-RHA16KF',$,(#590));
#592=PRESENTATION_STYLE_ASSIGNMENT((#593));
#593=SURFACE_STYLE_USAGE(.BOTH.,#596);
#594=SURFACE_STYLE_RENDERING_WITH_PROPERTIES($,#600,(#595));
#595=SURFACE_STYLE_TRANSPARENT(1.);
#596=SURFACE_SIDE_STYLE('',(#597,#594));
#597=SURFACE_STYLE_FILL_AREA(#598);
#598=FILL_AREA_STYLE('',(#599));
#599=FILL_AREA_STYLE_COLOUR('',#600);
#600=COLOUR_RGB('',0.996078431372549,0.996078431372549,1.);
ENDSEC;
END-ISO-10303-21;
