ISO-10303-21;
HEADER;
/* Generated by software containing ST-Developer
 * from STEP Tools, Inc. (www.steptools.com) 
 */

FILE_DESCRIPTION(
/* description */ (''),
/* implementation_level */ '2;1');

FILE_NAME(
/* name */ 
'G:\\FLANGES & FITTINGS\\LIQUID FEEDTHROUGHS SECTION 3.5\\Step files\\
FL-LF3-50KF.stp',
/* time_stamp */ '2018-10-05T10:48:53+01:00',
/* author */ ('paul'),
/* organization */ (''),
/* preprocessor_version */ 'ST-DEVELOPER v17.2',
/* originating_system */ 'Autodesk Inventor 2019',
/* authorisation */ '');

FILE_SCHEMA (('AUTOMOTIVE_DESIGN { 1 0 10303 214 3 1 1 }'));
ENDSEC;

DATA;
#10=MECHANICAL_DESIGN_GEOMETRIC_PRESENTATION_REPRESENTATION('',(#31,#32),
#509);
#11=ITEM_DEFINED_TRANSFORMATION($,$,#307,#342);
#12=ITEM_DEFINED_TRANSFORMATION($,$,#333,#343);
#13=ITEM_DEFINED_TRANSFORMATION($,$,#333,#344);
#14=ITEM_DEFINED_TRANSFORMATION($,$,#333,#345);
#15=(
REPRESENTATION_RELATIONSHIP($,$,#525,#524)
REPRESENTATION_RELATIONSHIP_WITH_TRANSFORMATION(#11)
SHAPE_REPRESENTATION_RELATIONSHIP()
);
#16=(
REPRESENTATION_RELATIONSHIP($,$,#526,#524)
REPRESENTATION_RELATIONSHIP_WITH_TRANSFORMATION(#12)
SHAPE_REPRESENTATION_RELATIONSHIP()
);
#17=(
REPRESENTATION_RELATIONSHIP($,$,#526,#524)
REPRESENTATION_RELATIONSHIP_WITH_TRANSFORMATION(#13)
SHAPE_REPRESENTATION_RELATIONSHIP()
);
#18=(
REPRESENTATION_RELATIONSHIP($,$,#526,#524)
REPRESENTATION_RELATIONSHIP_WITH_TRANSFORMATION(#14)
SHAPE_REPRESENTATION_RELATIONSHIP()
);
#19=CONTEXT_DEPENDENT_SHAPE_REPRESENTATION(#15,#520);
#20=CONTEXT_DEPENDENT_SHAPE_REPRESENTATION(#16,#521);
#21=CONTEXT_DEPENDENT_SHAPE_REPRESENTATION(#17,#522);
#22=CONTEXT_DEPENDENT_SHAPE_REPRESENTATION(#18,#523);
#23=NEXT_ASSEMBLY_USAGE_OCCURRENCE('FL-50KF:1','FL-50KF:1','FL-50KF:1',
#528,#529,'FL-50KF:1');
#24=NEXT_ASSEMBLY_USAGE_OCCURRENCE('6.35 tube for tube end version:1',
'6.35 tube for tube end version:1','6.35 tube for tube end version:1',#528,
#530,'6.35 tube for tube end version:1');
#25=NEXT_ASSEMBLY_USAGE_OCCURRENCE('6.35 tube for tube end version:2',
'6.35 tube for tube end version:2','6.35 tube for tube end version:2',#528,
#530,'6.35 tube for tube end version:2');
#26=NEXT_ASSEMBLY_USAGE_OCCURRENCE('6.35 tube for tube end version:3',
'6.35 tube for tube end version:3','6.35 tube for tube end version:3',#528,
#530,'6.35 tube for tube end version:3');
#27=SHAPE_REPRESENTATION_RELATIONSHIP('SRR','None',#525,#29);
#28=SHAPE_REPRESENTATION_RELATIONSHIP('SRR','None',#526,#30);
#29=ADVANCED_BREP_SHAPE_REPRESENTATION('',(#33),#507);
#30=ADVANCED_BREP_SHAPE_REPRESENTATION('',(#34),#508);
#31=STYLED_ITEM('',(#270),#33);
#32=STYLED_ITEM('',(#271),#34);
#33=MANIFOLD_SOLID_BREP('Solid1',#245);
#34=MANIFOLD_SOLID_BREP('Solid1',#246);
#35=FACE_BOUND('',#69,.T.);
#36=FACE_BOUND('',#70,.T.);
#37=FACE_BOUND('',#71,.T.);
#38=FACE_BOUND('',#73,.T.);
#39=FACE_BOUND('',#74,.T.);
#40=FACE_BOUND('',#75,.T.);
#41=FACE_BOUND('',#78,.T.);
#42=FACE_BOUND('',#82,.T.);
#43=FACE_BOUND('',#84,.T.);
#44=PLANE('',#325);
#45=PLANE('',#326);
#46=PLANE('',#332);
#47=PLANE('',#340);
#48=PLANE('',#341);
#49=CONICAL_SURFACE('',#322,33.7679491924311,1.30899693899575);
#50=FACE_OUTER_BOUND('',#63,.T.);
#51=FACE_OUTER_BOUND('',#64,.T.);
#52=FACE_OUTER_BOUND('',#65,.T.);
#53=FACE_OUTER_BOUND('',#66,.T.);
#54=FACE_OUTER_BOUND('',#67,.T.);
#55=FACE_OUTER_BOUND('',#68,.T.);
#56=FACE_OUTER_BOUND('',#72,.T.);
#57=FACE_OUTER_BOUND('',#76,.T.);
#58=FACE_OUTER_BOUND('',#77,.T.);
#59=FACE_OUTER_BOUND('',#79,.T.);
#60=FACE_OUTER_BOUND('',#80,.T.);
#61=FACE_OUTER_BOUND('',#81,.T.);
#62=FACE_OUTER_BOUND('',#83,.T.);
#63=EDGE_LOOP('',(#169,#170,#171,#172));
#64=EDGE_LOOP('',(#173,#174,#175,#176));
#65=EDGE_LOOP('',(#177,#178,#179,#180));
#66=EDGE_LOOP('',(#181,#182,#183,#184,#185,#186));
#67=EDGE_LOOP('',(#187,#188,#189,#190,#191,#192));
#68=EDGE_LOOP('',(#193,#194));
#69=EDGE_LOOP('',(#195));
#70=EDGE_LOOP('',(#196));
#71=EDGE_LOOP('',(#197));
#72=EDGE_LOOP('',(#198,#199));
#73=EDGE_LOOP('',(#200));
#74=EDGE_LOOP('',(#201));
#75=EDGE_LOOP('',(#202));
#76=EDGE_LOOP('',(#203,#204,#205,#206,#207,#208));
#77=EDGE_LOOP('',(#209,#210));
#78=EDGE_LOOP('',(#211,#212));
#79=EDGE_LOOP('',(#213,#214,#215,#216));
#80=EDGE_LOOP('',(#217,#218,#219,#220));
#81=EDGE_LOOP('',(#221));
#82=EDGE_LOOP('',(#222));
#83=EDGE_LOOP('',(#223));
#84=EDGE_LOOP('',(#224));
#85=LINE('',#440,#93);
#86=LINE('',#446,#94);
#87=LINE('',#452,#95);
#88=LINE('',#460,#96);
#89=LINE('',#469,#97);
#90=LINE('',#478,#98);
#91=LINE('',#488,#99);
#92=LINE('',#494,#100);
#93=VECTOR('',#354,3.175);
#94=VECTOR('',#361,3.175);
#95=VECTOR('',#368,3.175);
#96=VECTOR('',#377,37.5);
#97=VECTOR('',#388,33.7679491924311);
#98=VECTOR('',#399,25.6);
#99=VECTOR('',#412,1.975);
#100=VECTOR('',#419,3.175);
#101=CIRCLE('',#309,3.175);
#102=CIRCLE('',#310,3.175);
#103=CIRCLE('',#312,3.175);
#104=CIRCLE('',#313,3.175);
#105=CIRCLE('',#315,3.175);
#106=CIRCLE('',#316,3.175);
#107=CIRCLE('',#318,37.5);
#108=CIRCLE('',#319,37.5);
#109=CIRCLE('',#320,37.5);
#110=CIRCLE('',#321,37.5);
#111=CIRCLE('',#323,30.0358983848622);
#112=CIRCLE('',#324,30.0358983848622);
#113=CIRCLE('',#327,25.6);
#114=CIRCLE('',#328,25.6);
#115=CIRCLE('',#330,25.6);
#116=CIRCLE('',#331,25.6);
#117=CIRCLE('',#335,1.975);
#118=CIRCLE('',#336,1.975);
#119=CIRCLE('',#338,3.175);
#120=CIRCLE('',#339,3.175);
#121=VERTEX_POINT('',#437);
#122=VERTEX_POINT('',#439);
#123=VERTEX_POINT('',#443);
#124=VERTEX_POINT('',#445);
#125=VERTEX_POINT('',#449);
#126=VERTEX_POINT('',#451);
#127=VERTEX_POINT('',#455);
#128=VERTEX_POINT('',#456);
#129=VERTEX_POINT('',#459);
#130=VERTEX_POINT('',#461);
#131=VERTEX_POINT('',#465);
#132=VERTEX_POINT('',#466);
#133=VERTEX_POINT('',#472);
#134=VERTEX_POINT('',#473);
#135=VERTEX_POINT('',#477);
#136=VERTEX_POINT('',#479);
#137=VERTEX_POINT('',#485);
#138=VERTEX_POINT('',#487);
#139=VERTEX_POINT('',#491);
#140=VERTEX_POINT('',#493);
#141=EDGE_CURVE('',#121,#121,#101,.T.);
#142=EDGE_CURVE('',#121,#122,#85,.T.);
#143=EDGE_CURVE('',#122,#122,#102,.T.);
#144=EDGE_CURVE('',#123,#123,#103,.T.);
#145=EDGE_CURVE('',#123,#124,#86,.T.);
#146=EDGE_CURVE('',#124,#124,#104,.T.);
#147=EDGE_CURVE('',#125,#125,#105,.T.);
#148=EDGE_CURVE('',#125,#126,#87,.T.);
#149=EDGE_CURVE('',#126,#126,#106,.T.);
#150=EDGE_CURVE('',#127,#128,#107,.T.);
#151=EDGE_CURVE('',#128,#127,#108,.T.);
#152=EDGE_CURVE('',#128,#129,#88,.T.);
#153=EDGE_CURVE('',#129,#130,#109,.T.);
#154=EDGE_CURVE('',#130,#129,#110,.T.);
#155=EDGE_CURVE('',#131,#132,#111,.T.);
#156=EDGE_CURVE('',#132,#131,#112,.T.);
#157=EDGE_CURVE('',#132,#128,#89,.T.);
#158=EDGE_CURVE('',#133,#134,#113,.T.);
#159=EDGE_CURVE('',#134,#133,#114,.T.);
#160=EDGE_CURVE('',#134,#135,#90,.T.);
#161=EDGE_CURVE('',#136,#135,#115,.T.);
#162=EDGE_CURVE('',#135,#136,#116,.T.);
#163=EDGE_CURVE('',#137,#137,#117,.T.);
#164=EDGE_CURVE('',#137,#138,#91,.T.);
#165=EDGE_CURVE('',#138,#138,#118,.T.);
#166=EDGE_CURVE('',#139,#139,#119,.T.);
#167=EDGE_CURVE('',#139,#140,#92,.T.);
#168=EDGE_CURVE('',#140,#140,#120,.T.);
#169=ORIENTED_EDGE('',*,*,#141,.F.);
#170=ORIENTED_EDGE('',*,*,#142,.T.);
#171=ORIENTED_EDGE('',*,*,#143,.F.);
#172=ORIENTED_EDGE('',*,*,#142,.F.);
#173=ORIENTED_EDGE('',*,*,#144,.F.);
#174=ORIENTED_EDGE('',*,*,#145,.T.);
#175=ORIENTED_EDGE('',*,*,#146,.F.);
#176=ORIENTED_EDGE('',*,*,#145,.F.);
#177=ORIENTED_EDGE('',*,*,#147,.F.);
#178=ORIENTED_EDGE('',*,*,#148,.T.);
#179=ORIENTED_EDGE('',*,*,#149,.F.);
#180=ORIENTED_EDGE('',*,*,#148,.F.);
#181=ORIENTED_EDGE('',*,*,#150,.F.);
#182=ORIENTED_EDGE('',*,*,#151,.F.);
#183=ORIENTED_EDGE('',*,*,#152,.T.);
#184=ORIENTED_EDGE('',*,*,#153,.T.);
#185=ORIENTED_EDGE('',*,*,#154,.T.);
#186=ORIENTED_EDGE('',*,*,#152,.F.);
#187=ORIENTED_EDGE('',*,*,#155,.F.);
#188=ORIENTED_EDGE('',*,*,#156,.F.);
#189=ORIENTED_EDGE('',*,*,#157,.T.);
#190=ORIENTED_EDGE('',*,*,#151,.T.);
#191=ORIENTED_EDGE('',*,*,#150,.T.);
#192=ORIENTED_EDGE('',*,*,#157,.F.);
#193=ORIENTED_EDGE('',*,*,#155,.T.);
#194=ORIENTED_EDGE('',*,*,#156,.T.);
#195=ORIENTED_EDGE('',*,*,#141,.T.);
#196=ORIENTED_EDGE('',*,*,#144,.T.);
#197=ORIENTED_EDGE('',*,*,#147,.T.);
#198=ORIENTED_EDGE('',*,*,#158,.F.);
#199=ORIENTED_EDGE('',*,*,#159,.F.);
#200=ORIENTED_EDGE('',*,*,#143,.T.);
#201=ORIENTED_EDGE('',*,*,#146,.T.);
#202=ORIENTED_EDGE('',*,*,#149,.T.);
#203=ORIENTED_EDGE('',*,*,#158,.T.);
#204=ORIENTED_EDGE('',*,*,#160,.T.);
#205=ORIENTED_EDGE('',*,*,#161,.F.);
#206=ORIENTED_EDGE('',*,*,#162,.F.);
#207=ORIENTED_EDGE('',*,*,#160,.F.);
#208=ORIENTED_EDGE('',*,*,#159,.T.);
#209=ORIENTED_EDGE('',*,*,#154,.F.);
#210=ORIENTED_EDGE('',*,*,#153,.F.);
#211=ORIENTED_EDGE('',*,*,#161,.T.);
#212=ORIENTED_EDGE('',*,*,#162,.T.);
#213=ORIENTED_EDGE('',*,*,#163,.F.);
#214=ORIENTED_EDGE('',*,*,#164,.T.);
#215=ORIENTED_EDGE('',*,*,#165,.F.);
#216=ORIENTED_EDGE('',*,*,#164,.F.);
#217=ORIENTED_EDGE('',*,*,#166,.F.);
#218=ORIENTED_EDGE('',*,*,#167,.T.);
#219=ORIENTED_EDGE('',*,*,#168,.T.);
#220=ORIENTED_EDGE('',*,*,#167,.F.);
#221=ORIENTED_EDGE('',*,*,#166,.T.);
#222=ORIENTED_EDGE('',*,*,#165,.T.);
#223=ORIENTED_EDGE('',*,*,#168,.F.);
#224=ORIENTED_EDGE('',*,*,#163,.T.);
#225=CYLINDRICAL_SURFACE('',#308,3.175);
#226=CYLINDRICAL_SURFACE('',#311,3.175);
#227=CYLINDRICAL_SURFACE('',#314,3.175);
#228=CYLINDRICAL_SURFACE('',#317,37.5);
#229=CYLINDRICAL_SURFACE('',#329,25.6);
#230=CYLINDRICAL_SURFACE('',#334,1.975);
#231=CYLINDRICAL_SURFACE('',#337,3.175);
#232=ADVANCED_FACE('',(#50),#225,.F.);
#233=ADVANCED_FACE('',(#51),#226,.F.);
#234=ADVANCED_FACE('',(#52),#227,.F.);
#235=ADVANCED_FACE('',(#53),#228,.T.);
#236=ADVANCED_FACE('',(#54),#49,.T.);
#237=ADVANCED_FACE('',(#55,#35,#36,#37),#44,.T.);
#238=ADVANCED_FACE('',(#56,#38,#39,#40),#45,.T.);
#239=ADVANCED_FACE('',(#57),#229,.F.);
#240=ADVANCED_FACE('',(#58,#41),#46,.T.);
#241=ADVANCED_FACE('',(#59),#230,.F.);
#242=ADVANCED_FACE('',(#60),#231,.T.);
#243=ADVANCED_FACE('',(#61,#42),#47,.F.);
#244=ADVANCED_FACE('',(#62,#43),#48,.T.);
#245=CLOSED_SHELL('',(#232,#233,#234,#235,#236,#237,#238,#239,#240));
#246=CLOSED_SHELL('',(#241,#242,#243,#244));
#247=DERIVED_UNIT_ELEMENT(#251,1.);
#248=DERIVED_UNIT_ELEMENT(#511,3.);
#249=DERIVED_UNIT_ELEMENT(#251,1.);
#250=DERIVED_UNIT_ELEMENT(#511,3.);
#251=(
MASS_UNIT()
NAMED_UNIT(*)
SI_UNIT($,.GRAM.)
);
#252=DERIVED_UNIT((#247,#248));
#253=DERIVED_UNIT((#249,#250));
#254=MEASURE_REPRESENTATION_ITEM('density measure',
POSITIVE_RATIO_MEASURE(8.),#252);
#255=MEASURE_REPRESENTATION_ITEM('density measure',
POSITIVE_RATIO_MEASURE(8.),#253);
#256=PROPERTY_DEFINITION_REPRESENTATION(#266,#260);
#257=PROPERTY_DEFINITION_REPRESENTATION(#267,#261);
#258=PROPERTY_DEFINITION_REPRESENTATION(#268,#262);
#259=PROPERTY_DEFINITION_REPRESENTATION(#269,#263);
#260=REPRESENTATION('material name',(#264),#507);
#261=REPRESENTATION('density',(#254),#507);
#262=REPRESENTATION('material name',(#265),#508);
#263=REPRESENTATION('density',(#255),#508);
#264=DESCRIPTIVE_REPRESENTATION_ITEM('Stainless Steel AISI 304',
'Stainless Steel AISI 304');
#265=DESCRIPTIVE_REPRESENTATION_ITEM('Stainless Steel AISI 304',
'Stainless Steel AISI 304');
#266=PROPERTY_DEFINITION('material property','material name',#529);
#267=PROPERTY_DEFINITION('material property','density of part',#529);
#268=PROPERTY_DEFINITION('material property','material name',#530);
#269=PROPERTY_DEFINITION('material property','density of part',#530);
#270=PRESENTATION_STYLE_ASSIGNMENT((#272));
#271=PRESENTATION_STYLE_ASSIGNMENT((#273));
#272=SURFACE_STYLE_USAGE(.BOTH.,#278);
#273=SURFACE_STYLE_USAGE(.BOTH.,#279);
#274=SURFACE_STYLE_RENDERING_WITH_PROPERTIES($,#286,(#276));
#275=SURFACE_STYLE_RENDERING_WITH_PROPERTIES($,#287,(#277));
#276=SURFACE_STYLE_TRANSPARENT(1.);
#277=SURFACE_STYLE_TRANSPARENT(1.);
#278=SURFACE_SIDE_STYLE('',(#280,#274));
#279=SURFACE_SIDE_STYLE('',(#281,#275));
#280=SURFACE_STYLE_FILL_AREA(#282);
#281=SURFACE_STYLE_FILL_AREA(#283);
#282=FILL_AREA_STYLE('',(#284));
#283=FILL_AREA_STYLE('',(#285));
#284=FILL_AREA_STYLE_COLOUR('',#286);
#285=FILL_AREA_STYLE_COLOUR('',#287);
#286=COLOUR_RGB('',0.745098039215686,0.737254901960784,0.729411764705882);
#287=COLOUR_RGB('',0.745098039215686,0.737254901960784,0.729411764705882);
#288=DATE_TIME_ROLE('creation_date');
#289=DATE_TIME_ROLE('creation_date');
#290=DATE_TIME_ROLE('creation_date');
#291=APPLIED_DATE_AND_TIME_ASSIGNMENT(#294,#288,(#528));
#292=APPLIED_DATE_AND_TIME_ASSIGNMENT(#295,#289,(#529));
#293=APPLIED_DATE_AND_TIME_ASSIGNMENT(#296,#290,(#530));
#294=DATE_AND_TIME(#297,#300);
#295=DATE_AND_TIME(#298,#301);
#296=DATE_AND_TIME(#299,#302);
#297=CALENDAR_DATE(2018,5,10);
#298=CALENDAR_DATE(2014,15,8);
#299=CALENDAR_DATE(2015,24,3);
#300=LOCAL_TIME(9,29,45.,#303);
#301=LOCAL_TIME(10,33,6.,#304);
#302=LOCAL_TIME(9,31,52.,#305);
#303=COORDINATED_UNIVERSAL_TIME_OFFSET(0,0,.BEHIND.);
#304=COORDINATED_UNIVERSAL_TIME_OFFSET(0,0,.BEHIND.);
#305=COORDINATED_UNIVERSAL_TIME_OFFSET(0,0,.BEHIND.);
#306=AXIS2_PLACEMENT_3D('placement',#434,#346,#347);
#307=AXIS2_PLACEMENT_3D('placement',#435,#348,#349);
#308=AXIS2_PLACEMENT_3D('',#436,#350,#351);
#309=AXIS2_PLACEMENT_3D('',#438,#352,#353);
#310=AXIS2_PLACEMENT_3D('',#441,#355,#356);
#311=AXIS2_PLACEMENT_3D('',#442,#357,#358);
#312=AXIS2_PLACEMENT_3D('',#444,#359,#360);
#313=AXIS2_PLACEMENT_3D('',#447,#362,#363);
#314=AXIS2_PLACEMENT_3D('',#448,#364,#365);
#315=AXIS2_PLACEMENT_3D('',#450,#366,#367);
#316=AXIS2_PLACEMENT_3D('',#453,#369,#370);
#317=AXIS2_PLACEMENT_3D('',#454,#371,#372);
#318=AXIS2_PLACEMENT_3D('',#457,#373,#374);
#319=AXIS2_PLACEMENT_3D('',#458,#375,#376);
#320=AXIS2_PLACEMENT_3D('',#462,#378,#379);
#321=AXIS2_PLACEMENT_3D('',#463,#380,#381);
#322=AXIS2_PLACEMENT_3D('',#464,#382,#383);
#323=AXIS2_PLACEMENT_3D('',#467,#384,#385);
#324=AXIS2_PLACEMENT_3D('',#468,#386,#387);
#325=AXIS2_PLACEMENT_3D('',#470,#389,#390);
#326=AXIS2_PLACEMENT_3D('',#471,#391,#392);
#327=AXIS2_PLACEMENT_3D('',#474,#393,#394);
#328=AXIS2_PLACEMENT_3D('',#475,#395,#396);
#329=AXIS2_PLACEMENT_3D('',#476,#397,#398);
#330=AXIS2_PLACEMENT_3D('',#480,#400,#401);
#331=AXIS2_PLACEMENT_3D('',#481,#402,#403);
#332=AXIS2_PLACEMENT_3D('',#482,#404,#405);
#333=AXIS2_PLACEMENT_3D('placement',#483,#406,#407);
#334=AXIS2_PLACEMENT_3D('',#484,#408,#409);
#335=AXIS2_PLACEMENT_3D('',#486,#410,#411);
#336=AXIS2_PLACEMENT_3D('',#489,#413,#414);
#337=AXIS2_PLACEMENT_3D('',#490,#415,#416);
#338=AXIS2_PLACEMENT_3D('',#492,#417,#418);
#339=AXIS2_PLACEMENT_3D('',#495,#420,#421);
#340=AXIS2_PLACEMENT_3D('',#496,#422,#423);
#341=AXIS2_PLACEMENT_3D('',#497,#424,#425);
#342=AXIS2_PLACEMENT_3D('',#498,#426,#427);
#343=AXIS2_PLACEMENT_3D('',#499,#428,#429);
#344=AXIS2_PLACEMENT_3D('',#500,#430,#431);
#345=AXIS2_PLACEMENT_3D('',#501,#432,#433);
#346=DIRECTION('axis',(0.,0.,1.));
#347=DIRECTION('refdir',(1.,0.,0.));
#348=DIRECTION('axis',(0.,0.,1.));
#349=DIRECTION('refdir',(1.,0.,0.));
#350=DIRECTION('center_axis',(0.,-1.,0.));
#351=DIRECTION('ref_axis',(0.5,0.,-0.866025403784438));
#352=DIRECTION('center_axis',(0.,-1.,0.));
#353=DIRECTION('ref_axis',(0.5,0.,-0.866025403784438));
#354=DIRECTION('',(0.,-1.,0.));
#355=DIRECTION('center_axis',(0.,1.,0.));
#356=DIRECTION('ref_axis',(0.5,0.,-0.866025403784438));
#357=DIRECTION('center_axis',(0.,-1.,0.));
#358=DIRECTION('ref_axis',(0.5,0.,0.866025403784439));
#359=DIRECTION('center_axis',(0.,-1.,0.));
#360=DIRECTION('ref_axis',(0.5,0.,0.866025403784439));
#361=DIRECTION('',(0.,-1.,0.));
#362=DIRECTION('center_axis',(0.,1.,0.));
#363=DIRECTION('ref_axis',(0.5,0.,0.866025403784439));
#364=DIRECTION('center_axis',(0.,-1.,0.));
#365=DIRECTION('ref_axis',(-1.,0.,0.));
#366=DIRECTION('center_axis',(0.,-1.,0.));
#367=DIRECTION('ref_axis',(-1.,0.,0.));
#368=DIRECTION('',(0.,-1.,0.));
#369=DIRECTION('center_axis',(0.,1.,0.));
#370=DIRECTION('ref_axis',(-1.,0.,0.));
#371=DIRECTION('center_axis',(0.,1.,0.));
#372=DIRECTION('ref_axis',(-1.,0.,0.));
#373=DIRECTION('center_axis',(0.,1.,0.));
#374=DIRECTION('ref_axis',(1.,0.,0.));
#375=DIRECTION('center_axis',(0.,1.,0.));
#376=DIRECTION('ref_axis',(1.,0.,0.));
#377=DIRECTION('',(0.,-1.,0.));
#378=DIRECTION('center_axis',(0.,1.,0.));
#379=DIRECTION('ref_axis',(1.,0.,0.));
#380=DIRECTION('center_axis',(0.,1.,0.));
#381=DIRECTION('ref_axis',(1.,0.,0.));
#382=DIRECTION('center_axis',(0.,-1.,0.));
#383=DIRECTION('ref_axis',(-1.,0.,0.));
#384=DIRECTION('center_axis',(0.,1.,0.));
#385=DIRECTION('ref_axis',(1.,0.,0.));
#386=DIRECTION('center_axis',(0.,1.,0.));
#387=DIRECTION('ref_axis',(1.,0.,0.));
#388=DIRECTION('',(0.965925826289069,-0.258819045102519,-1.18291797137867E-16));
#389=DIRECTION('center_axis',(0.,1.,0.));
#390=DIRECTION('ref_axis',(0.,0.,1.));
#391=DIRECTION('center_axis',(0.,-1.,0.));
#392=DIRECTION('ref_axis',(0.,0.,-1.));
#393=DIRECTION('center_axis',(0.,1.,0.));
#394=DIRECTION('ref_axis',(1.,0.,0.));
#395=DIRECTION('center_axis',(0.,1.,0.));
#396=DIRECTION('ref_axis',(1.,0.,0.));
#397=DIRECTION('center_axis',(0.,1.,0.));
#398=DIRECTION('ref_axis',(-1.,0.,0.));
#399=DIRECTION('',(0.,-1.,0.));
#400=DIRECTION('center_axis',(0.,1.,0.));
#401=DIRECTION('ref_axis',(1.,0.,0.));
#402=DIRECTION('center_axis',(0.,1.,0.));
#403=DIRECTION('ref_axis',(1.,0.,0.));
#404=DIRECTION('center_axis',(0.,-1.,0.));
#405=DIRECTION('ref_axis',(0.,0.,-1.));
#406=DIRECTION('axis',(0.,0.,1.));
#407=DIRECTION('refdir',(1.,0.,0.));
#408=DIRECTION('center_axis',(0.,0.,-1.));
#409=DIRECTION('ref_axis',(-1.,0.,0.));
#410=DIRECTION('center_axis',(0.,0.,-1.));
#411=DIRECTION('ref_axis',(-1.,0.,0.));
#412=DIRECTION('',(0.,0.,-1.));
#413=DIRECTION('center_axis',(0.,0.,1.));
#414=DIRECTION('ref_axis',(-1.,0.,0.));
#415=DIRECTION('center_axis',(0.,0.,-1.));
#416=DIRECTION('ref_axis',(-1.,0.,0.));
#417=DIRECTION('center_axis',(0.,0.,-1.));
#418=DIRECTION('ref_axis',(-1.,0.,0.));
#419=DIRECTION('',(0.,0.,1.));
#420=DIRECTION('center_axis',(0.,0.,-1.));
#421=DIRECTION('ref_axis',(-1.,0.,0.));
#422=DIRECTION('center_axis',(0.,0.,1.));
#423=DIRECTION('ref_axis',(1.,0.,0.));
#424=DIRECTION('center_axis',(0.,0.,1.));
#425=DIRECTION('ref_axis',(1.,0.,0.));
#426=DIRECTION('',(0.,0.,1.));
#427=DIRECTION('',(1.,0.,0.));
#428=DIRECTION('',(0.,-1.,0.));
#429=DIRECTION('',(1.,0.,0.));
#430=DIRECTION('',(0.,1.,0.));
#431=DIRECTION('',(1.,0.,0.));
#432=DIRECTION('',(0.,-1.,0.));
#433=DIRECTION('',(1.,0.,0.));
#434=CARTESIAN_POINT('',(0.,0.,0.));
#435=CARTESIAN_POINT('',(0.,0.,0.));
#436=CARTESIAN_POINT('Origin',(6.50000000000001,5.,-11.2583302491977));
#437=CARTESIAN_POINT('',(4.9125,5.,-8.50869959218211));
#438=CARTESIAN_POINT('Origin',(6.50000000000001,5.,-11.2583302491977));
#439=CARTESIAN_POINT('',(4.9125,2.5,-8.50869959218211));
#440=CARTESIAN_POINT('',(4.9125,5.,-8.50869959218211));
#441=CARTESIAN_POINT('Origin',(6.50000000000001,2.5,-11.2583302491977));
#442=CARTESIAN_POINT('Origin',(6.5,5.,11.2583302491977));
#443=CARTESIAN_POINT('',(4.9125,5.,8.50869959218211));
#444=CARTESIAN_POINT('Origin',(6.5,5.,11.2583302491977));
#445=CARTESIAN_POINT('',(4.9125,2.5,8.50869959218211));
#446=CARTESIAN_POINT('',(4.9125,5.,8.50869959218211));
#447=CARTESIAN_POINT('Origin',(6.5,2.5,11.2583302491977));
#448=CARTESIAN_POINT('Origin',(-13.,5.,0.));
#449=CARTESIAN_POINT('',(-9.825,5.,-3.88825358729285E-16));
#450=CARTESIAN_POINT('Origin',(-13.,5.,0.));
#451=CARTESIAN_POINT('',(-9.825,2.5,-3.88825358729285E-16));
#452=CARTESIAN_POINT('',(-9.825,5.,3.88825358729285E-16));
#453=CARTESIAN_POINT('Origin',(-13.,2.5,0.));
#454=CARTESIAN_POINT('Origin',(0.,1.5,0.));
#455=CARTESIAN_POINT('',(-37.5,3.,0.));
#456=CARTESIAN_POINT('',(37.5,3.,-4.59242549680258E-15));
#457=CARTESIAN_POINT('Origin',(0.,3.,0.));
#458=CARTESIAN_POINT('Origin',(0.,3.,0.));
#459=CARTESIAN_POINT('',(37.5,0.,-4.59242549680258E-15));
#460=CARTESIAN_POINT('',(37.5,1.5,-4.59242549680258E-15));
#461=CARTESIAN_POINT('',(-37.5,0.,0.));
#462=CARTESIAN_POINT('Origin',(0.,0.,0.));
#463=CARTESIAN_POINT('Origin',(0.,0.,0.));
#464=CARTESIAN_POINT('Origin',(0.,4.,0.));
#465=CARTESIAN_POINT('',(-30.0358983848622,5.,0.));
#466=CARTESIAN_POINT('',(30.0358983848622,5.,-3.67833668165366E-15));
#467=CARTESIAN_POINT('Origin',(0.,5.,0.));
#468=CARTESIAN_POINT('Origin',(0.,5.,0.));
#469=CARTESIAN_POINT('',(33.7679491924311,4.,-4.13538108922812E-15));
#470=CARTESIAN_POINT('Origin',(0.,5.,0.));
#471=CARTESIAN_POINT('Origin',(-25.6,2.5,0.));
#472=CARTESIAN_POINT('',(-25.6,2.5,0.));
#473=CARTESIAN_POINT('',(25.6,2.5,-3.13509580581722E-15));
#474=CARTESIAN_POINT('Origin',(0.,2.5,0.));
#475=CARTESIAN_POINT('Origin',(0.,2.5,0.));
#476=CARTESIAN_POINT('Origin',(0.,1.25,0.));
#477=CARTESIAN_POINT('',(25.6,-1.38777878078145E-16,-3.13509580581722E-15));
#478=CARTESIAN_POINT('',(25.6,1.25,-3.13509580581722E-15));
#479=CARTESIAN_POINT('',(-25.6,0.,0.));
#480=CARTESIAN_POINT('Origin',(0.,0.,0.));
#481=CARTESIAN_POINT('Origin',(0.,0.,0.));
#482=CARTESIAN_POINT('Origin',(-37.5,0.,0.));
#483=CARTESIAN_POINT('',(0.,0.,0.));
#484=CARTESIAN_POINT('Origin',(0.,0.,0.));
#485=CARTESIAN_POINT('',(1.975,2.41867742831602E-16,0.));
#486=CARTESIAN_POINT('Origin',(0.,0.,0.));
#487=CARTESIAN_POINT('',(1.975,2.41867742831602E-16,-152.4));
#488=CARTESIAN_POINT('',(1.975,-2.41867742831602E-16,0.));
#489=CARTESIAN_POINT('Origin',(0.,0.,-152.4));
#490=CARTESIAN_POINT('Origin',(0.,0.,0.));
#491=CARTESIAN_POINT('',(3.175,3.88825358729285E-16,-152.4));
#492=CARTESIAN_POINT('Origin',(0.,0.,-152.4));
#493=CARTESIAN_POINT('',(3.175,3.88825358729285E-16,0.));
#494=CARTESIAN_POINT('',(3.175,-3.88825358729285E-16,0.));
#495=CARTESIAN_POINT('Origin',(0.,0.,0.));
#496=CARTESIAN_POINT('Origin',(-3.23799232551628E-16,7.2849279831047E-17,
-152.4));
#497=CARTESIAN_POINT('Origin',(-3.23799232551628E-16,7.2849279831047E-17,
0.));
#498=CARTESIAN_POINT('',(-2.69953047620579,-3.79107979296798,0.));
#499=CARTESIAN_POINT('',(3.80046952379421,-54.591079792968,11.2583302491977));
#500=CARTESIAN_POINT('',(3.80046952379422,72.408920207032,-11.2583302491977));
#501=CARTESIAN_POINT('',(-15.6995304762058,-105.391079792968,0.));
#502=UNCERTAINTY_MEASURE_WITH_UNIT(LENGTH_MEASURE(0.01),#510,
'DISTANCE_ACCURACY_VALUE',
'Maximum model space distance between geometric entities at asserted c
onnectivities');
#503=UNCERTAINTY_MEASURE_WITH_UNIT(LENGTH_MEASURE(0.01),#510,
'DISTANCE_ACCURACY_VALUE',
'Maximum model space distance between geometric entities at asserted c
onnectivities');
#504=UNCERTAINTY_MEASURE_WITH_UNIT(LENGTH_MEASURE(0.01),#510,
'DISTANCE_ACCURACY_VALUE',
'Maximum model space distance between geometric entities at asserted c
onnectivities');
#505=UNCERTAINTY_MEASURE_WITH_UNIT(LENGTH_MEASURE(0.01),#510,
'DISTANCE_ACCURACY_VALUE',
'Maximum model space distance between geometric entities at asserted c
onnectivities');
#506=(
GEOMETRIC_REPRESENTATION_CONTEXT(3)
GLOBAL_UNCERTAINTY_ASSIGNED_CONTEXT((#502))
GLOBAL_UNIT_ASSIGNED_CONTEXT((#510,#512,#513))
REPRESENTATION_CONTEXT('','3D')
);
#507=(
GEOMETRIC_REPRESENTATION_CONTEXT(3)
GLOBAL_UNCERTAINTY_ASSIGNED_CONTEXT((#503))
GLOBAL_UNIT_ASSIGNED_CONTEXT((#510,#512,#513))
REPRESENTATION_CONTEXT('','3D')
);
#508=(
GEOMETRIC_REPRESENTATION_CONTEXT(3)
GLOBAL_UNCERTAINTY_ASSIGNED_CONTEXT((#504))
GLOBAL_UNIT_ASSIGNED_CONTEXT((#510,#512,#513))
REPRESENTATION_CONTEXT('','3D')
);
#509=(
GEOMETRIC_REPRESENTATION_CONTEXT(3)
GLOBAL_UNCERTAINTY_ASSIGNED_CONTEXT((#505))
GLOBAL_UNIT_ASSIGNED_CONTEXT((#510,#512,#513))
REPRESENTATION_CONTEXT('','3D')
);
#510=(
LENGTH_UNIT()
NAMED_UNIT(*)
SI_UNIT(.MILLI.,.METRE.)
);
#511=(
LENGTH_UNIT()
NAMED_UNIT(*)
SI_UNIT(.CENTI.,.METRE.)
);
#512=(
NAMED_UNIT(*)
PLANE_ANGLE_UNIT()
SI_UNIT($,.RADIAN.)
);
#513=(
NAMED_UNIT(*)
SI_UNIT($,.STERADIAN.)
SOLID_ANGLE_UNIT()
);
#514=SHAPE_DEFINITION_REPRESENTATION(#517,#524);
#515=SHAPE_DEFINITION_REPRESENTATION(#518,#525);
#516=SHAPE_DEFINITION_REPRESENTATION(#519,#526);
#517=PRODUCT_DEFINITION_SHAPE('',$,#528);
#518=PRODUCT_DEFINITION_SHAPE('',$,#529);
#519=PRODUCT_DEFINITION_SHAPE('',$,#530);
#520=PRODUCT_DEFINITION_SHAPE($,$,#23);
#521=PRODUCT_DEFINITION_SHAPE($,$,#24);
#522=PRODUCT_DEFINITION_SHAPE($,$,#25);
#523=PRODUCT_DEFINITION_SHAPE($,$,#26);
#524=SHAPE_REPRESENTATION('',(#306,#342,#343,#344,#345),#506);
#525=SHAPE_REPRESENTATION('',(#307),#507);
#526=SHAPE_REPRESENTATION('',(#333),#508);
#527=PRODUCT_DEFINITION_CONTEXT('part definition',#538,'design');
#528=PRODUCT_DEFINITION('FL-LF3-50KF','FL-LF3-50KF',#531,#527);
#529=PRODUCT_DEFINITION('FL-50KF','FL-50KF',#532,#527);
#530=PRODUCT_DEFINITION('6.35 tube for tube end version',
'6.35 tube for tube end version',#533,#527);
#531=PRODUCT_DEFINITION_FORMATION('',$,#540);
#532=PRODUCT_DEFINITION_FORMATION('',$,#541);
#533=PRODUCT_DEFINITION_FORMATION('',$,#542);
#534=PRODUCT_RELATED_PRODUCT_CATEGORY('FL-LF3-50KF','FL-LF3-50KF',(#540));
#535=PRODUCT_RELATED_PRODUCT_CATEGORY('FL-50KF','FL-50KF',(#541));
#536=PRODUCT_RELATED_PRODUCT_CATEGORY('6.35 tube for tube end version',
'6.35 tube for tube end version',(#542));
#537=APPLICATION_PROTOCOL_DEFINITION('international standard',
'automotive_design',2009,#538);
#538=APPLICATION_CONTEXT(
'Core Data for Automotive Mechanical Design Process');
#539=PRODUCT_CONTEXT('part definition',#538,'mechanical');
#540=PRODUCT('FL-LF3-50KF','FL-LF3-50KF',$,(#539));
#541=PRODUCT('FL-50KF','FL-50KF',$,(#539));
#542=PRODUCT('6.35 tube for tube end version',
'6.35 tube for tube end version',$,(#539));
ENDSEC;
END-ISO-10303-21;
