ISO-10303-21;
HEADER;
/* Generated by software containing ST-Developer
 * from STEP Tools, Inc. (www.steptools.com) 
 */

FILE_DESCRIPTION(
/* description */ (''),
/* implementation_level */ '2;1');

FILE_NAME(
/* name */ 
'G:\\FLANGES & FITTINGS\\LIQUID FEEDTHROUGHS SECTION 3.5\\Step files\\
FL-LF2-40KF.stp',
/* time_stamp */ '2018-10-04T12:30:26+01:00',
/* author */ ('paul'),
/* organization */ (''),
/* preprocessor_version */ 'ST-DEVELOPER v17.2',
/* originating_system */ 'Autodesk Inventor 2019',
/* authorisation */ '');

FILE_SCHEMA (('AUTOMOTIVE_DESIGN { 1 0 10303 214 3 1 1 }'));
ENDSEC;

DATA;
#10=MECHANICAL_DESIGN_GEOMETRIC_PRESENTATION_REPRESENTATION('',(#28,#29),
#462);
#11=ITEM_DEFINED_TRANSFORMATION($,$,#280,#312);
#12=ITEM_DEFINED_TRANSFORMATION($,$,#280,#313);
#13=ITEM_DEFINED_TRANSFORMATION($,$,#289,#314);
#14=(
REPRESENTATION_RELATIONSHIP($,$,#477,#476)
REPRESENTATION_RELATIONSHIP_WITH_TRANSFORMATION(#11)
SHAPE_REPRESENTATION_RELATIONSHIP()
);
#15=(
REPRESENTATION_RELATIONSHIP($,$,#477,#476)
REPRESENTATION_RELATIONSHIP_WITH_TRANSFORMATION(#12)
SHAPE_REPRESENTATION_RELATIONSHIP()
);
#16=(
REPRESENTATION_RELATIONSHIP($,$,#478,#476)
REPRESENTATION_RELATIONSHIP_WITH_TRANSFORMATION(#13)
SHAPE_REPRESENTATION_RELATIONSHIP()
);
#17=CONTEXT_DEPENDENT_SHAPE_REPRESENTATION(#14,#473);
#18=CONTEXT_DEPENDENT_SHAPE_REPRESENTATION(#15,#474);
#19=CONTEXT_DEPENDENT_SHAPE_REPRESENTATION(#16,#475);
#20=NEXT_ASSEMBLY_USAGE_OCCURRENCE('6.35 tube for tube end version:1',
'6.35 tube for tube end version:1','6.35 tube for tube end version:1',#480,
#481,'6.35 tube for tube end version:1');
#21=NEXT_ASSEMBLY_USAGE_OCCURRENCE('6.35 tube for tube end version:2',
'6.35 tube for tube end version:2','6.35 tube for tube end version:2',#480,
#481,'6.35 tube for tube end version:2');
#22=NEXT_ASSEMBLY_USAGE_OCCURRENCE('FL-40KF:1','FL-40KF:1','FL-40KF:1',
#480,#482,'FL-40KF:1');
#23=CONICAL_SURFACE('',#301,23.7679491924311,1.30899693899575);
#24=SHAPE_REPRESENTATION_RELATIONSHIP('SRR','None',#477,#26);
#25=SHAPE_REPRESENTATION_RELATIONSHIP('SRR','None',#478,#27);
#26=ADVANCED_BREP_SHAPE_REPRESENTATION('',(#30),#460);
#27=ADVANCED_BREP_SHAPE_REPRESENTATION('',(#31),#461);
#28=STYLED_ITEM('',(#243),#30);
#29=STYLED_ITEM('',(#244),#31);
#30=MANIFOLD_SOLID_BREP('Solid1',#218);
#31=MANIFOLD_SOLID_BREP('Solid1',#219);
#32=FACE_BOUND('',#59,.T.);
#33=FACE_BOUND('',#61,.T.);
#34=FACE_BOUND('',#67,.T.);
#35=FACE_BOUND('',#68,.T.);
#36=FACE_BOUND('',#70,.T.);
#37=FACE_BOUND('',#71,.T.);
#38=FACE_BOUND('',#74,.T.);
#39=PLANE('',#287);
#40=PLANE('',#288);
#41=PLANE('',#304);
#42=PLANE('',#305);
#43=PLANE('',#311);
#44=FACE_OUTER_BOUND('',#56,.T.);
#45=FACE_OUTER_BOUND('',#57,.T.);
#46=FACE_OUTER_BOUND('',#58,.T.);
#47=FACE_OUTER_BOUND('',#60,.T.);
#48=FACE_OUTER_BOUND('',#62,.T.);
#49=FACE_OUTER_BOUND('',#63,.T.);
#50=FACE_OUTER_BOUND('',#64,.T.);
#51=FACE_OUTER_BOUND('',#65,.T.);
#52=FACE_OUTER_BOUND('',#66,.T.);
#53=FACE_OUTER_BOUND('',#69,.T.);
#54=FACE_OUTER_BOUND('',#72,.T.);
#55=FACE_OUTER_BOUND('',#73,.T.);
#56=EDGE_LOOP('',(#150,#151,#152,#153));
#57=EDGE_LOOP('',(#154,#155,#156,#157));
#58=EDGE_LOOP('',(#158));
#59=EDGE_LOOP('',(#159));
#60=EDGE_LOOP('',(#160));
#61=EDGE_LOOP('',(#161));
#62=EDGE_LOOP('',(#162,#163,#164,#165));
#63=EDGE_LOOP('',(#166,#167,#168,#169));
#64=EDGE_LOOP('',(#170,#171,#172,#173,#174,#175));
#65=EDGE_LOOP('',(#176,#177,#178,#179,#180,#181));
#66=EDGE_LOOP('',(#182,#183));
#67=EDGE_LOOP('',(#184));
#68=EDGE_LOOP('',(#185));
#69=EDGE_LOOP('',(#186,#187));
#70=EDGE_LOOP('',(#188));
#71=EDGE_LOOP('',(#189));
#72=EDGE_LOOP('',(#190,#191,#192,#193,#194,#195));
#73=EDGE_LOOP('',(#196,#197));
#74=EDGE_LOOP('',(#198,#199));
#75=LINE('',#400,#82);
#76=LINE('',#406,#83);
#77=LINE('',#415,#84);
#78=LINE('',#421,#85);
#79=LINE('',#429,#86);
#80=LINE('',#438,#87);
#81=LINE('',#447,#88);
#82=VECTOR('',#323,1.975);
#83=VECTOR('',#330,3.175);
#84=VECTOR('',#343,3.175);
#85=VECTOR('',#350,3.175);
#86=VECTOR('',#359,27.5);
#87=VECTOR('',#370,23.7679491924311);
#88=VECTOR('',#381,20.6);
#89=CIRCLE('',#282,1.975);
#90=CIRCLE('',#283,1.975);
#91=CIRCLE('',#285,3.175);
#92=CIRCLE('',#286,3.175);
#93=CIRCLE('',#291,3.175);
#94=CIRCLE('',#292,3.175);
#95=CIRCLE('',#294,3.175);
#96=CIRCLE('',#295,3.175);
#97=CIRCLE('',#297,27.5);
#98=CIRCLE('',#298,27.5);
#99=CIRCLE('',#299,27.5);
#100=CIRCLE('',#300,27.5);
#101=CIRCLE('',#302,20.0358983848623);
#102=CIRCLE('',#303,20.0358983848623);
#103=CIRCLE('',#306,20.6);
#104=CIRCLE('',#307,20.6);
#105=CIRCLE('',#309,20.6);
#106=CIRCLE('',#310,20.6);
#107=VERTEX_POINT('',#397);
#108=VERTEX_POINT('',#399);
#109=VERTEX_POINT('',#403);
#110=VERTEX_POINT('',#405);
#111=VERTEX_POINT('',#412);
#112=VERTEX_POINT('',#414);
#113=VERTEX_POINT('',#418);
#114=VERTEX_POINT('',#420);
#115=VERTEX_POINT('',#424);
#116=VERTEX_POINT('',#425);
#117=VERTEX_POINT('',#428);
#118=VERTEX_POINT('',#430);
#119=VERTEX_POINT('',#434);
#120=VERTEX_POINT('',#435);
#121=VERTEX_POINT('',#441);
#122=VERTEX_POINT('',#442);
#123=VERTEX_POINT('',#446);
#124=VERTEX_POINT('',#448);
#125=EDGE_CURVE('',#107,#107,#89,.T.);
#126=EDGE_CURVE('',#107,#108,#75,.T.);
#127=EDGE_CURVE('',#108,#108,#90,.T.);
#128=EDGE_CURVE('',#109,#109,#91,.T.);
#129=EDGE_CURVE('',#109,#110,#76,.T.);
#130=EDGE_CURVE('',#110,#110,#92,.T.);
#131=EDGE_CURVE('',#111,#111,#93,.T.);
#132=EDGE_CURVE('',#111,#112,#77,.T.);
#133=EDGE_CURVE('',#112,#112,#94,.T.);
#134=EDGE_CURVE('',#113,#113,#95,.T.);
#135=EDGE_CURVE('',#113,#114,#78,.T.);
#136=EDGE_CURVE('',#114,#114,#96,.T.);
#137=EDGE_CURVE('',#115,#116,#97,.T.);
#138=EDGE_CURVE('',#116,#115,#98,.T.);
#139=EDGE_CURVE('',#116,#117,#79,.T.);
#140=EDGE_CURVE('',#117,#118,#99,.T.);
#141=EDGE_CURVE('',#118,#117,#100,.T.);
#142=EDGE_CURVE('',#119,#120,#101,.T.);
#143=EDGE_CURVE('',#120,#119,#102,.T.);
#144=EDGE_CURVE('',#120,#116,#80,.T.);
#145=EDGE_CURVE('',#121,#122,#103,.T.);
#146=EDGE_CURVE('',#122,#121,#104,.T.);
#147=EDGE_CURVE('',#122,#123,#81,.T.);
#148=EDGE_CURVE('',#124,#123,#105,.T.);
#149=EDGE_CURVE('',#123,#124,#106,.T.);
#150=ORIENTED_EDGE('',*,*,#125,.F.);
#151=ORIENTED_EDGE('',*,*,#126,.T.);
#152=ORIENTED_EDGE('',*,*,#127,.F.);
#153=ORIENTED_EDGE('',*,*,#126,.F.);
#154=ORIENTED_EDGE('',*,*,#128,.F.);
#155=ORIENTED_EDGE('',*,*,#129,.T.);
#156=ORIENTED_EDGE('',*,*,#130,.T.);
#157=ORIENTED_EDGE('',*,*,#129,.F.);
#158=ORIENTED_EDGE('',*,*,#128,.T.);
#159=ORIENTED_EDGE('',*,*,#127,.T.);
#160=ORIENTED_EDGE('',*,*,#130,.F.);
#161=ORIENTED_EDGE('',*,*,#125,.T.);
#162=ORIENTED_EDGE('',*,*,#131,.F.);
#163=ORIENTED_EDGE('',*,*,#132,.T.);
#164=ORIENTED_EDGE('',*,*,#133,.F.);
#165=ORIENTED_EDGE('',*,*,#132,.F.);
#166=ORIENTED_EDGE('',*,*,#134,.F.);
#167=ORIENTED_EDGE('',*,*,#135,.T.);
#168=ORIENTED_EDGE('',*,*,#136,.F.);
#169=ORIENTED_EDGE('',*,*,#135,.F.);
#170=ORIENTED_EDGE('',*,*,#137,.F.);
#171=ORIENTED_EDGE('',*,*,#138,.F.);
#172=ORIENTED_EDGE('',*,*,#139,.T.);
#173=ORIENTED_EDGE('',*,*,#140,.T.);
#174=ORIENTED_EDGE('',*,*,#141,.T.);
#175=ORIENTED_EDGE('',*,*,#139,.F.);
#176=ORIENTED_EDGE('',*,*,#142,.F.);
#177=ORIENTED_EDGE('',*,*,#143,.F.);
#178=ORIENTED_EDGE('',*,*,#144,.T.);
#179=ORIENTED_EDGE('',*,*,#138,.T.);
#180=ORIENTED_EDGE('',*,*,#137,.T.);
#181=ORIENTED_EDGE('',*,*,#144,.F.);
#182=ORIENTED_EDGE('',*,*,#142,.T.);
#183=ORIENTED_EDGE('',*,*,#143,.T.);
#184=ORIENTED_EDGE('',*,*,#131,.T.);
#185=ORIENTED_EDGE('',*,*,#134,.T.);
#186=ORIENTED_EDGE('',*,*,#145,.F.);
#187=ORIENTED_EDGE('',*,*,#146,.F.);
#188=ORIENTED_EDGE('',*,*,#133,.T.);
#189=ORIENTED_EDGE('',*,*,#136,.T.);
#190=ORIENTED_EDGE('',*,*,#145,.T.);
#191=ORIENTED_EDGE('',*,*,#147,.T.);
#192=ORIENTED_EDGE('',*,*,#148,.F.);
#193=ORIENTED_EDGE('',*,*,#149,.F.);
#194=ORIENTED_EDGE('',*,*,#147,.F.);
#195=ORIENTED_EDGE('',*,*,#146,.T.);
#196=ORIENTED_EDGE('',*,*,#141,.F.);
#197=ORIENTED_EDGE('',*,*,#140,.F.);
#198=ORIENTED_EDGE('',*,*,#148,.T.);
#199=ORIENTED_EDGE('',*,*,#149,.T.);
#200=CYLINDRICAL_SURFACE('',#281,1.975);
#201=CYLINDRICAL_SURFACE('',#284,3.175);
#202=CYLINDRICAL_SURFACE('',#290,3.175);
#203=CYLINDRICAL_SURFACE('',#293,3.175);
#204=CYLINDRICAL_SURFACE('',#296,27.5);
#205=CYLINDRICAL_SURFACE('',#308,20.6);
#206=ADVANCED_FACE('',(#44),#200,.F.);
#207=ADVANCED_FACE('',(#45),#201,.T.);
#208=ADVANCED_FACE('',(#46,#32),#39,.F.);
#209=ADVANCED_FACE('',(#47,#33),#40,.T.);
#210=ADVANCED_FACE('',(#48),#202,.F.);
#211=ADVANCED_FACE('',(#49),#203,.F.);
#212=ADVANCED_FACE('',(#50),#204,.T.);
#213=ADVANCED_FACE('',(#51),#23,.T.);
#214=ADVANCED_FACE('',(#52,#34,#35),#41,.T.);
#215=ADVANCED_FACE('',(#53,#36,#37),#42,.T.);
#216=ADVANCED_FACE('',(#54),#205,.F.);
#217=ADVANCED_FACE('',(#55,#38),#43,.T.);
#218=CLOSED_SHELL('',(#206,#207,#208,#209));
#219=CLOSED_SHELL('',(#210,#211,#212,#213,#214,#215,#216,#217));
#220=DERIVED_UNIT_ELEMENT(#224,1.);
#221=DERIVED_UNIT_ELEMENT(#464,3.);
#222=DERIVED_UNIT_ELEMENT(#224,1.);
#223=DERIVED_UNIT_ELEMENT(#464,3.);
#224=(
MASS_UNIT()
NAMED_UNIT(*)
SI_UNIT($,.GRAM.)
);
#225=DERIVED_UNIT((#220,#221));
#226=DERIVED_UNIT((#222,#223));
#227=MEASURE_REPRESENTATION_ITEM('density measure',
POSITIVE_RATIO_MEASURE(8.),#225);
#228=MEASURE_REPRESENTATION_ITEM('density measure',
POSITIVE_RATIO_MEASURE(8.),#226);
#229=PROPERTY_DEFINITION_REPRESENTATION(#239,#233);
#230=PROPERTY_DEFINITION_REPRESENTATION(#240,#234);
#231=PROPERTY_DEFINITION_REPRESENTATION(#241,#235);
#232=PROPERTY_DEFINITION_REPRESENTATION(#242,#236);
#233=REPRESENTATION('material name',(#237),#460);
#234=REPRESENTATION('density',(#227),#460);
#235=REPRESENTATION('material name',(#238),#461);
#236=REPRESENTATION('density',(#228),#461);
#237=DESCRIPTIVE_REPRESENTATION_ITEM('Stainless Steel AISI 304',
'Stainless Steel AISI 304');
#238=DESCRIPTIVE_REPRESENTATION_ITEM('Stainless Steel, Austenitic',
'Stainless Steel, Austenitic');
#239=PROPERTY_DEFINITION('material property','material name',#481);
#240=PROPERTY_DEFINITION('material property','density of part',#481);
#241=PROPERTY_DEFINITION('material property','material name',#482);
#242=PROPERTY_DEFINITION('material property','density of part',#482);
#243=PRESENTATION_STYLE_ASSIGNMENT((#245));
#244=PRESENTATION_STYLE_ASSIGNMENT((#246));
#245=SURFACE_STYLE_USAGE(.BOTH.,#251);
#246=SURFACE_STYLE_USAGE(.BOTH.,#252);
#247=SURFACE_STYLE_RENDERING_WITH_PROPERTIES($,#259,(#249));
#248=SURFACE_STYLE_RENDERING_WITH_PROPERTIES($,#260,(#250));
#249=SURFACE_STYLE_TRANSPARENT(1.);
#250=SURFACE_STYLE_TRANSPARENT(1.);
#251=SURFACE_SIDE_STYLE('',(#253,#247));
#252=SURFACE_SIDE_STYLE('',(#254,#248));
#253=SURFACE_STYLE_FILL_AREA(#255);
#254=SURFACE_STYLE_FILL_AREA(#256);
#255=FILL_AREA_STYLE('',(#257));
#256=FILL_AREA_STYLE('',(#258));
#257=FILL_AREA_STYLE_COLOUR('',#259);
#258=FILL_AREA_STYLE_COLOUR('',#260);
#259=COLOUR_RGB('',0.745098039215686,0.737254901960784,0.729411764705882);
#260=COLOUR_RGB('',0.745098039215686,0.737254901960784,0.729411764705882);
#261=DATE_TIME_ROLE('creation_date');
#262=DATE_TIME_ROLE('creation_date');
#263=DATE_TIME_ROLE('creation_date');
#264=APPLIED_DATE_AND_TIME_ASSIGNMENT(#267,#261,(#480));
#265=APPLIED_DATE_AND_TIME_ASSIGNMENT(#268,#262,(#481));
#266=APPLIED_DATE_AND_TIME_ASSIGNMENT(#269,#263,(#482));
#267=DATE_AND_TIME(#270,#273);
#268=DATE_AND_TIME(#271,#274);
#269=DATE_AND_TIME(#272,#275);
#270=CALENDAR_DATE(2018,3,10);
#271=CALENDAR_DATE(2015,24,3);
#272=CALENDAR_DATE(2014,18,11);
#273=LOCAL_TIME(15,11,1.,#276);
#274=LOCAL_TIME(9,31,52.,#277);
#275=LOCAL_TIME(8,20,57.,#278);
#276=COORDINATED_UNIVERSAL_TIME_OFFSET(0,0,.BEHIND.);
#277=COORDINATED_UNIVERSAL_TIME_OFFSET(0,0,.BEHIND.);
#278=COORDINATED_UNIVERSAL_TIME_OFFSET(0,0,.BEHIND.);
#279=AXIS2_PLACEMENT_3D('placement',#394,#315,#316);
#280=AXIS2_PLACEMENT_3D('placement',#395,#317,#318);
#281=AXIS2_PLACEMENT_3D('',#396,#319,#320);
#282=AXIS2_PLACEMENT_3D('',#398,#321,#322);
#283=AXIS2_PLACEMENT_3D('',#401,#324,#325);
#284=AXIS2_PLACEMENT_3D('',#402,#326,#327);
#285=AXIS2_PLACEMENT_3D('',#404,#328,#329);
#286=AXIS2_PLACEMENT_3D('',#407,#331,#332);
#287=AXIS2_PLACEMENT_3D('',#408,#333,#334);
#288=AXIS2_PLACEMENT_3D('',#409,#335,#336);
#289=AXIS2_PLACEMENT_3D('placement',#410,#337,#338);
#290=AXIS2_PLACEMENT_3D('',#411,#339,#340);
#291=AXIS2_PLACEMENT_3D('',#413,#341,#342);
#292=AXIS2_PLACEMENT_3D('',#416,#344,#345);
#293=AXIS2_PLACEMENT_3D('',#417,#346,#347);
#294=AXIS2_PLACEMENT_3D('',#419,#348,#349);
#295=AXIS2_PLACEMENT_3D('',#422,#351,#352);
#296=AXIS2_PLACEMENT_3D('',#423,#353,#354);
#297=AXIS2_PLACEMENT_3D('',#426,#355,#356);
#298=AXIS2_PLACEMENT_3D('',#427,#357,#358);
#299=AXIS2_PLACEMENT_3D('',#431,#360,#361);
#300=AXIS2_PLACEMENT_3D('',#432,#362,#363);
#301=AXIS2_PLACEMENT_3D('',#433,#364,#365);
#302=AXIS2_PLACEMENT_3D('',#436,#366,#367);
#303=AXIS2_PLACEMENT_3D('',#437,#368,#369);
#304=AXIS2_PLACEMENT_3D('',#439,#371,#372);
#305=AXIS2_PLACEMENT_3D('',#440,#373,#374);
#306=AXIS2_PLACEMENT_3D('',#443,#375,#376);
#307=AXIS2_PLACEMENT_3D('',#444,#377,#378);
#308=AXIS2_PLACEMENT_3D('',#445,#379,#380);
#309=AXIS2_PLACEMENT_3D('',#449,#382,#383);
#310=AXIS2_PLACEMENT_3D('',#450,#384,#385);
#311=AXIS2_PLACEMENT_3D('',#451,#386,#387);
#312=AXIS2_PLACEMENT_3D('',#452,#388,#389);
#313=AXIS2_PLACEMENT_3D('',#453,#390,#391);
#314=AXIS2_PLACEMENT_3D('',#454,#392,#393);
#315=DIRECTION('axis',(0.,0.,1.));
#316=DIRECTION('refdir',(1.,0.,0.));
#317=DIRECTION('axis',(0.,0.,1.));
#318=DIRECTION('refdir',(1.,0.,0.));
#319=DIRECTION('center_axis',(0.,0.,-1.));
#320=DIRECTION('ref_axis',(-1.,0.,0.));
#321=DIRECTION('center_axis',(0.,0.,-1.));
#322=DIRECTION('ref_axis',(-1.,0.,0.));
#323=DIRECTION('',(0.,0.,-1.));
#324=DIRECTION('center_axis',(0.,0.,1.));
#325=DIRECTION('ref_axis',(-1.,0.,0.));
#326=DIRECTION('center_axis',(0.,0.,-1.));
#327=DIRECTION('ref_axis',(-1.,0.,0.));
#328=DIRECTION('center_axis',(0.,0.,-1.));
#329=DIRECTION('ref_axis',(-1.,0.,0.));
#330=DIRECTION('',(0.,0.,1.));
#331=DIRECTION('center_axis',(0.,0.,-1.));
#332=DIRECTION('ref_axis',(-1.,0.,0.));
#333=DIRECTION('center_axis',(0.,0.,1.));
#334=DIRECTION('ref_axis',(1.,0.,0.));
#335=DIRECTION('center_axis',(0.,0.,1.));
#336=DIRECTION('ref_axis',(1.,0.,0.));
#337=DIRECTION('axis',(0.,0.,1.));
#338=DIRECTION('refdir',(1.,0.,0.));
#339=DIRECTION('center_axis',(0.,-1.,0.));
#340=DIRECTION('ref_axis',(-1.,0.,0.));
#341=DIRECTION('center_axis',(0.,-1.,0.));
#342=DIRECTION('ref_axis',(-1.,0.,0.));
#343=DIRECTION('',(0.,-1.,0.));
#344=DIRECTION('center_axis',(0.,1.,0.));
#345=DIRECTION('ref_axis',(-1.,0.,0.));
#346=DIRECTION('center_axis',(0.,-1.,0.));
#347=DIRECTION('ref_axis',(-1.,0.,0.));
#348=DIRECTION('center_axis',(0.,-1.,0.));
#349=DIRECTION('ref_axis',(-1.,0.,0.));
#350=DIRECTION('',(0.,-1.,0.));
#351=DIRECTION('center_axis',(0.,1.,0.));
#352=DIRECTION('ref_axis',(-1.,0.,0.));
#353=DIRECTION('center_axis',(0.,1.,0.));
#354=DIRECTION('ref_axis',(-1.,0.,0.));
#355=DIRECTION('center_axis',(0.,1.,0.));
#356=DIRECTION('ref_axis',(1.,0.,0.));
#357=DIRECTION('center_axis',(0.,1.,0.));
#358=DIRECTION('ref_axis',(1.,0.,0.));
#359=DIRECTION('',(0.,-1.,0.));
#360=DIRECTION('center_axis',(0.,1.,0.));
#361=DIRECTION('ref_axis',(1.,0.,0.));
#362=DIRECTION('center_axis',(0.,1.,0.));
#363=DIRECTION('ref_axis',(1.,0.,0.));
#364=DIRECTION('center_axis',(0.,-1.,0.));
#365=DIRECTION('ref_axis',(-1.,0.,0.));
#366=DIRECTION('center_axis',(0.,1.,0.));
#367=DIRECTION('ref_axis',(1.,0.,0.));
#368=DIRECTION('center_axis',(0.,1.,0.));
#369=DIRECTION('ref_axis',(1.,0.,0.));
#370=DIRECTION('',(0.965925826289068,-0.258819045102521,-1.18291797137867E-16));
#371=DIRECTION('center_axis',(0.,1.,0.));
#372=DIRECTION('ref_axis',(0.,0.,1.));
#373=DIRECTION('center_axis',(0.,-1.,0.));
#374=DIRECTION('ref_axis',(0.,0.,-1.));
#375=DIRECTION('center_axis',(0.,1.,0.));
#376=DIRECTION('ref_axis',(1.,0.,0.));
#377=DIRECTION('center_axis',(0.,1.,0.));
#378=DIRECTION('ref_axis',(1.,0.,0.));
#379=DIRECTION('center_axis',(0.,1.,0.));
#380=DIRECTION('ref_axis',(-1.,0.,0.));
#381=DIRECTION('',(0.,-1.,0.));
#382=DIRECTION('center_axis',(0.,1.,0.));
#383=DIRECTION('ref_axis',(1.,0.,0.));
#384=DIRECTION('center_axis',(0.,1.,0.));
#385=DIRECTION('ref_axis',(1.,0.,0.));
#386=DIRECTION('center_axis',(0.,-1.,0.));
#387=DIRECTION('ref_axis',(0.,0.,-1.));
#388=DIRECTION('',(0.,-1.,0.));
#389=DIRECTION('',(1.,0.,0.));
#390=DIRECTION('',(0.,1.,0.));
#391=DIRECTION('',(1.,0.,0.));
#392=DIRECTION('',(0.,0.,1.));
#393=DIRECTION('',(1.,0.,0.));
#394=CARTESIAN_POINT('',(0.,0.,0.));
#395=CARTESIAN_POINT('',(0.,0.,0.));
#396=CARTESIAN_POINT('Origin',(0.,0.,0.));
#397=CARTESIAN_POINT('',(1.975,2.41867742831602E-16,0.));
#398=CARTESIAN_POINT('Origin',(0.,0.,0.));
#399=CARTESIAN_POINT('',(1.975,2.41867742831602E-16,-152.4));
#400=CARTESIAN_POINT('',(1.975,-2.41867742831602E-16,0.));
#401=CARTESIAN_POINT('Origin',(0.,0.,-152.4));
#402=CARTESIAN_POINT('Origin',(0.,0.,0.));
#403=CARTESIAN_POINT('',(3.175,3.88825358729285E-16,-152.4));
#404=CARTESIAN_POINT('Origin',(0.,0.,-152.4));
#405=CARTESIAN_POINT('',(3.175,3.88825358729285E-16,0.));
#406=CARTESIAN_POINT('',(3.175,-3.88825358729285E-16,0.));
#407=CARTESIAN_POINT('Origin',(0.,0.,0.));
#408=CARTESIAN_POINT('Origin',(-3.23799232551628E-16,7.2849279831047E-17,
-152.4));
#409=CARTESIAN_POINT('Origin',(-3.23799232551628E-16,7.2849279831047E-17,
0.));
#410=CARTESIAN_POINT('',(0.,0.,0.));
#411=CARTESIAN_POINT('Origin',(0.,5.,-11.1));
#412=CARTESIAN_POINT('',(3.175,5.,-11.1));
#413=CARTESIAN_POINT('Origin',(0.,5.,-11.1));
#414=CARTESIAN_POINT('',(3.175,2.5,-11.1));
#415=CARTESIAN_POINT('',(3.175,5.,-11.1));
#416=CARTESIAN_POINT('Origin',(0.,2.5,-11.1));
#417=CARTESIAN_POINT('Origin',(0.,5.,11.1));
#418=CARTESIAN_POINT('',(3.175,5.,11.1));
#419=CARTESIAN_POINT('Origin',(0.,5.,11.1));
#420=CARTESIAN_POINT('',(3.175,2.5,11.1));
#421=CARTESIAN_POINT('',(3.175,5.,11.1));
#422=CARTESIAN_POINT('Origin',(0.,2.5,11.1));
#423=CARTESIAN_POINT('Origin',(0.,1.5,0.));
#424=CARTESIAN_POINT('',(-27.5,3.,0.));
#425=CARTESIAN_POINT('',(27.5,3.,-3.36777869765522E-15));
#426=CARTESIAN_POINT('Origin',(0.,3.,0.));
#427=CARTESIAN_POINT('Origin',(0.,3.,0.));
#428=CARTESIAN_POINT('',(27.5,0.,-3.36777869765522E-15));
#429=CARTESIAN_POINT('',(27.5,1.5,-3.36777869765522E-15));
#430=CARTESIAN_POINT('',(-27.5,0.,0.));
#431=CARTESIAN_POINT('Origin',(0.,0.,0.));
#432=CARTESIAN_POINT('Origin',(0.,0.,0.));
#433=CARTESIAN_POINT('Origin',(0.,4.,0.));
#434=CARTESIAN_POINT('',(-20.0358983848623,5.,0.));
#435=CARTESIAN_POINT('',(20.0358983848622,5.,-2.45368988250632E-15));
#436=CARTESIAN_POINT('Origin',(0.,5.,0.));
#437=CARTESIAN_POINT('Origin',(0.,5.,0.));
#438=CARTESIAN_POINT('',(23.7679491924311,4.,-2.91073429008077E-15));
#439=CARTESIAN_POINT('Origin',(0.,5.,0.));
#440=CARTESIAN_POINT('Origin',(-20.6,2.5,0.));
#441=CARTESIAN_POINT('',(-20.6,2.5,0.));
#442=CARTESIAN_POINT('',(20.6,2.5,-2.52277240624355E-15));
#443=CARTESIAN_POINT('Origin',(0.,2.5,0.));
#444=CARTESIAN_POINT('Origin',(0.,2.5,0.));
#445=CARTESIAN_POINT('Origin',(0.,1.25,0.));
#446=CARTESIAN_POINT('',(20.6,0.,-2.52277240624355E-15));
#447=CARTESIAN_POINT('',(20.6,1.25,-2.52277240624355E-15));
#448=CARTESIAN_POINT('',(-20.6,0.,0.));
#449=CARTESIAN_POINT('Origin',(0.,0.,0.));
#450=CARTESIAN_POINT('Origin',(0.,0.,0.));
#451=CARTESIAN_POINT('Origin',(-27.5,0.,0.));
#452=CARTESIAN_POINT('',(-47.7206707775865,-72.6062485277406,-12.461631000624));
#453=CARTESIAN_POINT('',(-47.7206707775865,28.9937514722595,9.73836899937599));
#454=CARTESIAN_POINT('',(-47.7206707775865,-21.8062485277406,-1.36163100062401));
#455=UNCERTAINTY_MEASURE_WITH_UNIT(LENGTH_MEASURE(0.01),#463,
'DISTANCE_ACCURACY_VALUE',
'Maximum model space distance between geometric entities at asserted c
onnectivities');
#456=UNCERTAINTY_MEASURE_WITH_UNIT(LENGTH_MEASURE(0.01),#463,
'DISTANCE_ACCURACY_VALUE',
'Maximum model space distance between geometric entities at asserted c
onnectivities');
#457=UNCERTAINTY_MEASURE_WITH_UNIT(LENGTH_MEASURE(0.01),#463,
'DISTANCE_ACCURACY_VALUE',
'Maximum model space distance between geometric entities at asserted c
onnectivities');
#458=UNCERTAINTY_MEASURE_WITH_UNIT(LENGTH_MEASURE(0.01),#463,
'DISTANCE_ACCURACY_VALUE',
'Maximum model space distance between geometric entities at asserted c
onnectivities');
#459=(
GEOMETRIC_REPRESENTATION_CONTEXT(3)
GLOBAL_UNCERTAINTY_ASSIGNED_CONTEXT((#455))
GLOBAL_UNIT_ASSIGNED_CONTEXT((#463,#465,#466))
REPRESENTATION_CONTEXT('','3D')
);
#460=(
GEOMETRIC_REPRESENTATION_CONTEXT(3)
GLOBAL_UNCERTAINTY_ASSIGNED_CONTEXT((#456))
GLOBAL_UNIT_ASSIGNED_CONTEXT((#463,#465,#466))
REPRESENTATION_CONTEXT('','3D')
);
#461=(
GEOMETRIC_REPRESENTATION_CONTEXT(3)
GLOBAL_UNCERTAINTY_ASSIGNED_CONTEXT((#457))
GLOBAL_UNIT_ASSIGNED_CONTEXT((#463,#465,#466))
REPRESENTATION_CONTEXT('','3D')
);
#462=(
GEOMETRIC_REPRESENTATION_CONTEXT(3)
GLOBAL_UNCERTAINTY_ASSIGNED_CONTEXT((#458))
GLOBAL_UNIT_ASSIGNED_CONTEXT((#463,#465,#466))
REPRESENTATION_CONTEXT('','3D')
);
#463=(
LENGTH_UNIT()
NAMED_UNIT(*)
SI_UNIT(.MILLI.,.METRE.)
);
#464=(
LENGTH_UNIT()
NAMED_UNIT(*)
SI_UNIT(.CENTI.,.METRE.)
);
#465=(
NAMED_UNIT(*)
PLANE_ANGLE_UNIT()
SI_UNIT($,.RADIAN.)
);
#466=(
NAMED_UNIT(*)
SI_UNIT($,.STERADIAN.)
SOLID_ANGLE_UNIT()
);
#467=SHAPE_DEFINITION_REPRESENTATION(#470,#476);
#468=SHAPE_DEFINITION_REPRESENTATION(#471,#477);
#469=SHAPE_DEFINITION_REPRESENTATION(#472,#478);
#470=PRODUCT_DEFINITION_SHAPE('',$,#480);
#471=PRODUCT_DEFINITION_SHAPE('',$,#481);
#472=PRODUCT_DEFINITION_SHAPE('',$,#482);
#473=PRODUCT_DEFINITION_SHAPE($,$,#20);
#474=PRODUCT_DEFINITION_SHAPE($,$,#21);
#475=PRODUCT_DEFINITION_SHAPE($,$,#22);
#476=SHAPE_REPRESENTATION('',(#279,#312,#313,#314),#459);
#477=SHAPE_REPRESENTATION('',(#280),#460);
#478=SHAPE_REPRESENTATION('',(#289),#461);
#479=PRODUCT_DEFINITION_CONTEXT('part definition',#490,'design');
#480=PRODUCT_DEFINITION('FL-LF2-40KF','FL-LF2-40KF',#483,#479);
#481=PRODUCT_DEFINITION('6.35 tube for tube end version',
'6.35 tube for tube end version',#484,#479);
#482=PRODUCT_DEFINITION('FL-40KF','FL-40KF',#485,#479);
#483=PRODUCT_DEFINITION_FORMATION('',$,#492);
#484=PRODUCT_DEFINITION_FORMATION('',$,#493);
#485=PRODUCT_DEFINITION_FORMATION('',$,#494);
#486=PRODUCT_RELATED_PRODUCT_CATEGORY('FL-LF2-40KF','FL-LF2-40KF',(#492));
#487=PRODUCT_RELATED_PRODUCT_CATEGORY('6.35 tube for tube end version',
'6.35 tube for tube end version',(#493));
#488=PRODUCT_RELATED_PRODUCT_CATEGORY('FL-40KF','FL-40KF',(#494));
#489=APPLICATION_PROTOCOL_DEFINITION('international standard',
'automotive_design',2009,#490);
#490=APPLICATION_CONTEXT(
'Core Data for Automotive Mechanical Design Process');
#491=PRODUCT_CONTEXT('part definition',#490,'mechanical');
#492=PRODUCT('FL-LF2-40KF','FL-LF2-40KF',$,(#491));
#493=PRODUCT('6.35 tube for tube end version',
'6.35 tube for tube end version',$,(#491));
#494=PRODUCT('FL-40KF','FL-40KF',$,(#491));
ENDSEC;
END-ISO-10303-21;
