ISO-10303-21;
HEADER;
/* Generated by software containing ST-Developer
 * from STEP Tools, Inc. (www.steptools.com) 
 */

FILE_DESCRIPTION(
/* description */ (''),
/* implementation_level */ '2;1');

FILE_NAME(
/* name */ 
'G:\\FLANGES & FITTINGS\\LIQUID FEEDTHROUGHS SECTION 3.5\\Step files\\
FL-LF1-25KF.stp',
/* time_stamp */ '2018-10-04T12:17:07+01:00',
/* author */ ('paul'),
/* organization */ (''),
/* preprocessor_version */ 'ST-DEVELOPER v17.2',
/* originating_system */ 'Autodesk Inventor 2019',
/* authorisation */ '');

FILE_SCHEMA (('AUTOMOTIVE_DESIGN { 1 0 10303 214 3 1 1 }'));
ENDSEC;

DATA;
#10=MECHANICAL_DESIGN_GEOMETRIC_PRESENTATION_REPRESENTATION('',(#24,#25),
#415);
#11=ITEM_DEFINED_TRANSFORMATION($,$,#253,#282);
#12=ITEM_DEFINED_TRANSFORMATION($,$,#262,#283);
#13=(
REPRESENTATION_RELATIONSHIP($,$,#429,#428)
REPRESENTATION_RELATIONSHIP_WITH_TRANSFORMATION(#11)
SHAPE_REPRESENTATION_RELATIONSHIP()
);
#14=(
REPRESENTATION_RELATIONSHIP($,$,#430,#428)
REPRESENTATION_RELATIONSHIP_WITH_TRANSFORMATION(#12)
SHAPE_REPRESENTATION_RELATIONSHIP()
);
#15=CONTEXT_DEPENDENT_SHAPE_REPRESENTATION(#13,#426);
#16=CONTEXT_DEPENDENT_SHAPE_REPRESENTATION(#14,#427);
#17=NEXT_ASSEMBLY_USAGE_OCCURRENCE('6.35 tube for tube end version:1',
'6.35 tube for tube end version:1','6.35 tube for tube end version:1',#432,
#433,'6.35 tube for tube end version:1');
#18=NEXT_ASSEMBLY_USAGE_OCCURRENCE('FL-25KF:1','FL-25KF:1','FL-25KF:1',
#432,#434,'FL-25KF:1');
#19=CONICAL_SURFACE('',#271,16.2679491924311,1.30899693899575);
#20=SHAPE_REPRESENTATION_RELATIONSHIP('SRR','None',#429,#22);
#21=SHAPE_REPRESENTATION_RELATIONSHIP('SRR','None',#430,#23);
#22=ADVANCED_BREP_SHAPE_REPRESENTATION('',(#26),#413);
#23=ADVANCED_BREP_SHAPE_REPRESENTATION('',(#27),#414);
#24=STYLED_ITEM('',(#216),#26);
#25=STYLED_ITEM('',(#217),#27);
#26=MANIFOLD_SOLID_BREP('Solid1',#191);
#27=MANIFOLD_SOLID_BREP('Solid1',#192);
#28=FACE_BOUND('',#52,.T.);
#29=FACE_BOUND('',#54,.T.);
#30=FACE_BOUND('',#59,.T.);
#31=FACE_BOUND('',#61,.T.);
#32=FACE_BOUND('',#64,.T.);
#33=PLANE('',#260);
#34=PLANE('',#261);
#35=PLANE('',#274);
#36=PLANE('',#275);
#37=PLANE('',#281);
#38=FACE_OUTER_BOUND('',#49,.T.);
#39=FACE_OUTER_BOUND('',#50,.T.);
#40=FACE_OUTER_BOUND('',#51,.T.);
#41=FACE_OUTER_BOUND('',#53,.T.);
#42=FACE_OUTER_BOUND('',#55,.T.);
#43=FACE_OUTER_BOUND('',#56,.T.);
#44=FACE_OUTER_BOUND('',#57,.T.);
#45=FACE_OUTER_BOUND('',#58,.T.);
#46=FACE_OUTER_BOUND('',#60,.T.);
#47=FACE_OUTER_BOUND('',#62,.T.);
#48=FACE_OUTER_BOUND('',#63,.T.);
#49=EDGE_LOOP('',(#131,#132,#133,#134));
#50=EDGE_LOOP('',(#135,#136,#137,#138));
#51=EDGE_LOOP('',(#139));
#52=EDGE_LOOP('',(#140));
#53=EDGE_LOOP('',(#141));
#54=EDGE_LOOP('',(#142));
#55=EDGE_LOOP('',(#143,#144,#145,#146));
#56=EDGE_LOOP('',(#147,#148,#149,#150,#151,#152));
#57=EDGE_LOOP('',(#153,#154,#155,#156,#157,#158));
#58=EDGE_LOOP('',(#159,#160));
#59=EDGE_LOOP('',(#161));
#60=EDGE_LOOP('',(#162,#163));
#61=EDGE_LOOP('',(#164));
#62=EDGE_LOOP('',(#165,#166,#167,#168,#169,#170));
#63=EDGE_LOOP('',(#171,#172));
#64=EDGE_LOOP('',(#173,#174));
#65=LINE('',#360,#71);
#66=LINE('',#366,#72);
#67=LINE('',#375,#73);
#68=LINE('',#383,#74);
#69=LINE('',#392,#75);
#70=LINE('',#401,#76);
#71=VECTOR('',#292,1.975);
#72=VECTOR('',#299,3.175);
#73=VECTOR('',#312,3.175);
#74=VECTOR('',#321,20.);
#75=VECTOR('',#332,16.2679491924311);
#76=VECTOR('',#343,13.1);
#77=CIRCLE('',#255,1.975);
#78=CIRCLE('',#256,1.975);
#79=CIRCLE('',#258,3.175);
#80=CIRCLE('',#259,3.175);
#81=CIRCLE('',#264,3.175);
#82=CIRCLE('',#265,3.175);
#83=CIRCLE('',#267,20.);
#84=CIRCLE('',#268,20.);
#85=CIRCLE('',#269,20.);
#86=CIRCLE('',#270,20.);
#87=CIRCLE('',#272,12.5358983848622);
#88=CIRCLE('',#273,12.5358983848622);
#89=CIRCLE('',#276,13.1);
#90=CIRCLE('',#277,13.1);
#91=CIRCLE('',#279,13.1);
#92=CIRCLE('',#280,13.1);
#93=VERTEX_POINT('',#357);
#94=VERTEX_POINT('',#359);
#95=VERTEX_POINT('',#363);
#96=VERTEX_POINT('',#365);
#97=VERTEX_POINT('',#372);
#98=VERTEX_POINT('',#374);
#99=VERTEX_POINT('',#378);
#100=VERTEX_POINT('',#379);
#101=VERTEX_POINT('',#382);
#102=VERTEX_POINT('',#384);
#103=VERTEX_POINT('',#388);
#104=VERTEX_POINT('',#389);
#105=VERTEX_POINT('',#395);
#106=VERTEX_POINT('',#396);
#107=VERTEX_POINT('',#400);
#108=VERTEX_POINT('',#402);
#109=EDGE_CURVE('',#93,#93,#77,.T.);
#110=EDGE_CURVE('',#93,#94,#65,.T.);
#111=EDGE_CURVE('',#94,#94,#78,.T.);
#112=EDGE_CURVE('',#95,#95,#79,.T.);
#113=EDGE_CURVE('',#95,#96,#66,.T.);
#114=EDGE_CURVE('',#96,#96,#80,.T.);
#115=EDGE_CURVE('',#97,#97,#81,.T.);
#116=EDGE_CURVE('',#97,#98,#67,.T.);
#117=EDGE_CURVE('',#98,#98,#82,.T.);
#118=EDGE_CURVE('',#99,#100,#83,.T.);
#119=EDGE_CURVE('',#100,#99,#84,.T.);
#120=EDGE_CURVE('',#100,#101,#68,.T.);
#121=EDGE_CURVE('',#101,#102,#85,.T.);
#122=EDGE_CURVE('',#102,#101,#86,.T.);
#123=EDGE_CURVE('',#103,#104,#87,.T.);
#124=EDGE_CURVE('',#104,#103,#88,.T.);
#125=EDGE_CURVE('',#104,#100,#69,.T.);
#126=EDGE_CURVE('',#105,#106,#89,.T.);
#127=EDGE_CURVE('',#106,#105,#90,.T.);
#128=EDGE_CURVE('',#106,#107,#70,.T.);
#129=EDGE_CURVE('',#108,#107,#91,.T.);
#130=EDGE_CURVE('',#107,#108,#92,.T.);
#131=ORIENTED_EDGE('',*,*,#109,.F.);
#132=ORIENTED_EDGE('',*,*,#110,.T.);
#133=ORIENTED_EDGE('',*,*,#111,.F.);
#134=ORIENTED_EDGE('',*,*,#110,.F.);
#135=ORIENTED_EDGE('',*,*,#112,.F.);
#136=ORIENTED_EDGE('',*,*,#113,.T.);
#137=ORIENTED_EDGE('',*,*,#114,.T.);
#138=ORIENTED_EDGE('',*,*,#113,.F.);
#139=ORIENTED_EDGE('',*,*,#112,.T.);
#140=ORIENTED_EDGE('',*,*,#111,.T.);
#141=ORIENTED_EDGE('',*,*,#114,.F.);
#142=ORIENTED_EDGE('',*,*,#109,.T.);
#143=ORIENTED_EDGE('',*,*,#115,.F.);
#144=ORIENTED_EDGE('',*,*,#116,.T.);
#145=ORIENTED_EDGE('',*,*,#117,.F.);
#146=ORIENTED_EDGE('',*,*,#116,.F.);
#147=ORIENTED_EDGE('',*,*,#118,.F.);
#148=ORIENTED_EDGE('',*,*,#119,.F.);
#149=ORIENTED_EDGE('',*,*,#120,.T.);
#150=ORIENTED_EDGE('',*,*,#121,.T.);
#151=ORIENTED_EDGE('',*,*,#122,.T.);
#152=ORIENTED_EDGE('',*,*,#120,.F.);
#153=ORIENTED_EDGE('',*,*,#123,.F.);
#154=ORIENTED_EDGE('',*,*,#124,.F.);
#155=ORIENTED_EDGE('',*,*,#125,.T.);
#156=ORIENTED_EDGE('',*,*,#119,.T.);
#157=ORIENTED_EDGE('',*,*,#118,.T.);
#158=ORIENTED_EDGE('',*,*,#125,.F.);
#159=ORIENTED_EDGE('',*,*,#123,.T.);
#160=ORIENTED_EDGE('',*,*,#124,.T.);
#161=ORIENTED_EDGE('',*,*,#115,.T.);
#162=ORIENTED_EDGE('',*,*,#126,.F.);
#163=ORIENTED_EDGE('',*,*,#127,.F.);
#164=ORIENTED_EDGE('',*,*,#117,.T.);
#165=ORIENTED_EDGE('',*,*,#126,.T.);
#166=ORIENTED_EDGE('',*,*,#128,.T.);
#167=ORIENTED_EDGE('',*,*,#129,.F.);
#168=ORIENTED_EDGE('',*,*,#130,.F.);
#169=ORIENTED_EDGE('',*,*,#128,.F.);
#170=ORIENTED_EDGE('',*,*,#127,.T.);
#171=ORIENTED_EDGE('',*,*,#122,.F.);
#172=ORIENTED_EDGE('',*,*,#121,.F.);
#173=ORIENTED_EDGE('',*,*,#129,.T.);
#174=ORIENTED_EDGE('',*,*,#130,.T.);
#175=CYLINDRICAL_SURFACE('',#254,1.975);
#176=CYLINDRICAL_SURFACE('',#257,3.175);
#177=CYLINDRICAL_SURFACE('',#263,3.175);
#178=CYLINDRICAL_SURFACE('',#266,20.);
#179=CYLINDRICAL_SURFACE('',#278,13.1);
#180=ADVANCED_FACE('',(#38),#175,.F.);
#181=ADVANCED_FACE('',(#39),#176,.T.);
#182=ADVANCED_FACE('',(#40,#28),#33,.F.);
#183=ADVANCED_FACE('',(#41,#29),#34,.T.);
#184=ADVANCED_FACE('',(#42),#177,.F.);
#185=ADVANCED_FACE('',(#43),#178,.T.);
#186=ADVANCED_FACE('',(#44),#19,.T.);
#187=ADVANCED_FACE('',(#45,#30),#35,.T.);
#188=ADVANCED_FACE('',(#46,#31),#36,.T.);
#189=ADVANCED_FACE('',(#47),#179,.F.);
#190=ADVANCED_FACE('',(#48,#32),#37,.T.);
#191=CLOSED_SHELL('',(#180,#181,#182,#183));
#192=CLOSED_SHELL('',(#184,#185,#186,#187,#188,#189,#190));
#193=DERIVED_UNIT_ELEMENT(#197,1.);
#194=DERIVED_UNIT_ELEMENT(#417,3.);
#195=DERIVED_UNIT_ELEMENT(#197,1.);
#196=DERIVED_UNIT_ELEMENT(#417,3.);
#197=(
MASS_UNIT()
NAMED_UNIT(*)
SI_UNIT($,.GRAM.)
);
#198=DERIVED_UNIT((#193,#194));
#199=DERIVED_UNIT((#195,#196));
#200=MEASURE_REPRESENTATION_ITEM('density measure',
POSITIVE_RATIO_MEASURE(8.),#198);
#201=MEASURE_REPRESENTATION_ITEM('density measure',
POSITIVE_RATIO_MEASURE(8.),#199);
#202=PROPERTY_DEFINITION_REPRESENTATION(#212,#206);
#203=PROPERTY_DEFINITION_REPRESENTATION(#213,#207);
#204=PROPERTY_DEFINITION_REPRESENTATION(#214,#208);
#205=PROPERTY_DEFINITION_REPRESENTATION(#215,#209);
#206=REPRESENTATION('material name',(#210),#413);
#207=REPRESENTATION('density',(#200),#413);
#208=REPRESENTATION('material name',(#211),#414);
#209=REPRESENTATION('density',(#201),#414);
#210=DESCRIPTIVE_REPRESENTATION_ITEM('Stainless Steel AISI 304',
'Stainless Steel AISI 304');
#211=DESCRIPTIVE_REPRESENTATION_ITEM('Stainless Steel AISI 304',
'Stainless Steel AISI 304');
#212=PROPERTY_DEFINITION('material property','material name',#433);
#213=PROPERTY_DEFINITION('material property','density of part',#433);
#214=PROPERTY_DEFINITION('material property','material name',#434);
#215=PROPERTY_DEFINITION('material property','density of part',#434);
#216=PRESENTATION_STYLE_ASSIGNMENT((#218));
#217=PRESENTATION_STYLE_ASSIGNMENT((#219));
#218=SURFACE_STYLE_USAGE(.BOTH.,#224);
#219=SURFACE_STYLE_USAGE(.BOTH.,#225);
#220=SURFACE_STYLE_RENDERING_WITH_PROPERTIES($,#232,(#222));
#221=SURFACE_STYLE_RENDERING_WITH_PROPERTIES($,#233,(#223));
#222=SURFACE_STYLE_TRANSPARENT(1.);
#223=SURFACE_STYLE_TRANSPARENT(1.);
#224=SURFACE_SIDE_STYLE('',(#226,#220));
#225=SURFACE_SIDE_STYLE('',(#227,#221));
#226=SURFACE_STYLE_FILL_AREA(#228);
#227=SURFACE_STYLE_FILL_AREA(#229);
#228=FILL_AREA_STYLE('',(#230));
#229=FILL_AREA_STYLE('',(#231));
#230=FILL_AREA_STYLE_COLOUR('',#232);
#231=FILL_AREA_STYLE_COLOUR('',#233);
#232=COLOUR_RGB('',0.745098039215686,0.737254901960784,0.729411764705882);
#233=COLOUR_RGB('',0.745098039215686,0.737254901960784,0.729411764705882);
#234=DATE_TIME_ROLE('creation_date');
#235=DATE_TIME_ROLE('creation_date');
#236=DATE_TIME_ROLE('creation_date');
#237=APPLIED_DATE_AND_TIME_ASSIGNMENT(#240,#234,(#432));
#238=APPLIED_DATE_AND_TIME_ASSIGNMENT(#241,#235,(#433));
#239=APPLIED_DATE_AND_TIME_ASSIGNMENT(#242,#236,(#434));
#240=DATE_AND_TIME(#243,#246);
#241=DATE_AND_TIME(#244,#247);
#242=DATE_AND_TIME(#245,#248);
#243=CALENDAR_DATE(2018,4,10);
#244=CALENDAR_DATE(2015,24,3);
#245=CALENDAR_DATE(2014,18,11);
#246=LOCAL_TIME(11,0,16.,#249);
#247=LOCAL_TIME(9,31,52.,#250);
#248=LOCAL_TIME(10,34,47.,#251);
#249=COORDINATED_UNIVERSAL_TIME_OFFSET(0,0,.BEHIND.);
#250=COORDINATED_UNIVERSAL_TIME_OFFSET(0,0,.BEHIND.);
#251=COORDINATED_UNIVERSAL_TIME_OFFSET(0,0,.BEHIND.);
#252=AXIS2_PLACEMENT_3D('placement',#354,#284,#285);
#253=AXIS2_PLACEMENT_3D('placement',#355,#286,#287);
#254=AXIS2_PLACEMENT_3D('',#356,#288,#289);
#255=AXIS2_PLACEMENT_3D('',#358,#290,#291);
#256=AXIS2_PLACEMENT_3D('',#361,#293,#294);
#257=AXIS2_PLACEMENT_3D('',#362,#295,#296);
#258=AXIS2_PLACEMENT_3D('',#364,#297,#298);
#259=AXIS2_PLACEMENT_3D('',#367,#300,#301);
#260=AXIS2_PLACEMENT_3D('',#368,#302,#303);
#261=AXIS2_PLACEMENT_3D('',#369,#304,#305);
#262=AXIS2_PLACEMENT_3D('placement',#370,#306,#307);
#263=AXIS2_PLACEMENT_3D('',#371,#308,#309);
#264=AXIS2_PLACEMENT_3D('',#373,#310,#311);
#265=AXIS2_PLACEMENT_3D('',#376,#313,#314);
#266=AXIS2_PLACEMENT_3D('',#377,#315,#316);
#267=AXIS2_PLACEMENT_3D('',#380,#317,#318);
#268=AXIS2_PLACEMENT_3D('',#381,#319,#320);
#269=AXIS2_PLACEMENT_3D('',#385,#322,#323);
#270=AXIS2_PLACEMENT_3D('',#386,#324,#325);
#271=AXIS2_PLACEMENT_3D('',#387,#326,#327);
#272=AXIS2_PLACEMENT_3D('',#390,#328,#329);
#273=AXIS2_PLACEMENT_3D('',#391,#330,#331);
#274=AXIS2_PLACEMENT_3D('',#393,#333,#334);
#275=AXIS2_PLACEMENT_3D('',#394,#335,#336);
#276=AXIS2_PLACEMENT_3D('',#397,#337,#338);
#277=AXIS2_PLACEMENT_3D('',#398,#339,#340);
#278=AXIS2_PLACEMENT_3D('',#399,#341,#342);
#279=AXIS2_PLACEMENT_3D('',#403,#344,#345);
#280=AXIS2_PLACEMENT_3D('',#404,#346,#347);
#281=AXIS2_PLACEMENT_3D('',#405,#348,#349);
#282=AXIS2_PLACEMENT_3D('',#406,#350,#351);
#283=AXIS2_PLACEMENT_3D('',#407,#352,#353);
#284=DIRECTION('axis',(0.,0.,1.));
#285=DIRECTION('refdir',(1.,0.,0.));
#286=DIRECTION('axis',(0.,0.,1.));
#287=DIRECTION('refdir',(1.,0.,0.));
#288=DIRECTION('center_axis',(0.,0.,-1.));
#289=DIRECTION('ref_axis',(-1.,0.,0.));
#290=DIRECTION('center_axis',(0.,0.,-1.));
#291=DIRECTION('ref_axis',(-1.,0.,0.));
#292=DIRECTION('',(0.,0.,-1.));
#293=DIRECTION('center_axis',(0.,0.,1.));
#294=DIRECTION('ref_axis',(-1.,0.,0.));
#295=DIRECTION('center_axis',(0.,0.,-1.));
#296=DIRECTION('ref_axis',(-1.,0.,0.));
#297=DIRECTION('center_axis',(0.,0.,-1.));
#298=DIRECTION('ref_axis',(-1.,0.,0.));
#299=DIRECTION('',(0.,0.,1.));
#300=DIRECTION('center_axis',(0.,0.,-1.));
#301=DIRECTION('ref_axis',(-1.,0.,0.));
#302=DIRECTION('center_axis',(0.,0.,1.));
#303=DIRECTION('ref_axis',(1.,0.,0.));
#304=DIRECTION('center_axis',(0.,0.,1.));
#305=DIRECTION('ref_axis',(1.,0.,0.));
#306=DIRECTION('axis',(0.,0.,1.));
#307=DIRECTION('refdir',(1.,0.,0.));
#308=DIRECTION('center_axis',(0.,-1.,0.));
#309=DIRECTION('ref_axis',(-1.,0.,0.));
#310=DIRECTION('center_axis',(0.,-1.,0.));
#311=DIRECTION('ref_axis',(-1.,0.,0.));
#312=DIRECTION('',(0.,-1.,0.));
#313=DIRECTION('center_axis',(0.,1.,0.));
#314=DIRECTION('ref_axis',(-1.,0.,0.));
#315=DIRECTION('center_axis',(0.,1.,0.));
#316=DIRECTION('ref_axis',(-1.,0.,0.));
#317=DIRECTION('center_axis',(0.,1.,0.));
#318=DIRECTION('ref_axis',(1.,0.,0.));
#319=DIRECTION('center_axis',(0.,1.,0.));
#320=DIRECTION('ref_axis',(1.,0.,0.));
#321=DIRECTION('',(0.,-1.,0.));
#322=DIRECTION('center_axis',(0.,1.,0.));
#323=DIRECTION('ref_axis',(1.,0.,0.));
#324=DIRECTION('center_axis',(0.,1.,0.));
#325=DIRECTION('ref_axis',(1.,0.,0.));
#326=DIRECTION('center_axis',(0.,-1.,0.));
#327=DIRECTION('ref_axis',(-1.,0.,0.));
#328=DIRECTION('center_axis',(0.,1.,0.));
#329=DIRECTION('ref_axis',(1.,0.,0.));
#330=DIRECTION('center_axis',(0.,1.,0.));
#331=DIRECTION('ref_axis',(1.,0.,0.));
#332=DIRECTION('',(0.965925826289068,-0.258819045102521,-1.18291797137867E-16));
#333=DIRECTION('center_axis',(0.,1.,0.));
#334=DIRECTION('ref_axis',(0.,0.,1.));
#335=DIRECTION('center_axis',(0.,-1.,0.));
#336=DIRECTION('ref_axis',(0.,0.,-1.));
#337=DIRECTION('center_axis',(0.,1.,0.));
#338=DIRECTION('ref_axis',(1.,0.,0.));
#339=DIRECTION('center_axis',(0.,1.,0.));
#340=DIRECTION('ref_axis',(1.,0.,0.));
#341=DIRECTION('center_axis',(0.,1.,0.));
#342=DIRECTION('ref_axis',(-1.,0.,0.));
#343=DIRECTION('',(0.,-1.,0.));
#344=DIRECTION('center_axis',(0.,1.,0.));
#345=DIRECTION('ref_axis',(1.,0.,0.));
#346=DIRECTION('center_axis',(0.,1.,0.));
#347=DIRECTION('ref_axis',(1.,0.,0.));
#348=DIRECTION('center_axis',(0.,-1.,0.));
#349=DIRECTION('ref_axis',(0.,0.,-1.));
#350=DIRECTION('',(0.,-1.,0.));
#351=DIRECTION('',(1.,0.,0.));
#352=DIRECTION('',(0.,0.,1.));
#353=DIRECTION('',(1.,0.,0.));
#354=CARTESIAN_POINT('',(0.,0.,0.));
#355=CARTESIAN_POINT('',(0.,0.,0.));
#356=CARTESIAN_POINT('Origin',(0.,0.,0.));
#357=CARTESIAN_POINT('',(1.975,2.41867742831602E-16,0.));
#358=CARTESIAN_POINT('Origin',(0.,0.,0.));
#359=CARTESIAN_POINT('',(1.975,2.41867742831602E-16,-152.4));
#360=CARTESIAN_POINT('',(1.975,-2.41867742831602E-16,0.));
#361=CARTESIAN_POINT('Origin',(0.,0.,-152.4));
#362=CARTESIAN_POINT('Origin',(0.,0.,0.));
#363=CARTESIAN_POINT('',(3.175,3.88825358729285E-16,-152.4));
#364=CARTESIAN_POINT('Origin',(0.,0.,-152.4));
#365=CARTESIAN_POINT('',(3.175,3.88825358729285E-16,0.));
#366=CARTESIAN_POINT('',(3.175,-3.88825358729285E-16,0.));
#367=CARTESIAN_POINT('Origin',(0.,0.,0.));
#368=CARTESIAN_POINT('Origin',(-3.23799232551628E-16,7.2849279831047E-17,
-152.4));
#369=CARTESIAN_POINT('Origin',(-3.23799232551628E-16,7.2849279831047E-17,
0.));
#370=CARTESIAN_POINT('',(0.,0.,0.));
#371=CARTESIAN_POINT('Origin',(0.,5.,0.));
#372=CARTESIAN_POINT('',(3.175,5.,-5.55111512312578E-16));
#373=CARTESIAN_POINT('Origin',(0.,5.,0.));
#374=CARTESIAN_POINT('',(3.175,2.5,-5.55111512312578E-16));
#375=CARTESIAN_POINT('',(3.175,5.,3.88825358729285E-16));
#376=CARTESIAN_POINT('Origin',(0.,2.5,0.));
#377=CARTESIAN_POINT('Origin',(0.,1.5,0.));
#378=CARTESIAN_POINT('',(-20.,3.,0.));
#379=CARTESIAN_POINT('',(20.,3.,-2.44929359829471E-15));
#380=CARTESIAN_POINT('Origin',(0.,3.,0.));
#381=CARTESIAN_POINT('Origin',(0.,3.,0.));
#382=CARTESIAN_POINT('',(20.,0.,-2.44929359829471E-15));
#383=CARTESIAN_POINT('',(20.,1.5,-2.44929359829471E-15));
#384=CARTESIAN_POINT('',(-20.,0.,0.));
#385=CARTESIAN_POINT('Origin',(0.,0.,0.));
#386=CARTESIAN_POINT('Origin',(0.,0.,0.));
#387=CARTESIAN_POINT('Origin',(0.,4.,0.));
#388=CARTESIAN_POINT('',(-12.5358983848622,5.,0.));
#389=CARTESIAN_POINT('',(12.5358983848622,5.,-1.5352047831458E-15));
#390=CARTESIAN_POINT('Origin',(0.,5.,0.));
#391=CARTESIAN_POINT('Origin',(0.,5.,0.));
#392=CARTESIAN_POINT('',(16.2679491924311,4.,-1.99224919072025E-15));
#393=CARTESIAN_POINT('Origin',(0.,5.,0.));
#394=CARTESIAN_POINT('Origin',(-13.1,2.5,0.));
#395=CARTESIAN_POINT('',(-13.1,2.5,0.));
#396=CARTESIAN_POINT('',(13.1,2.5,-1.60428730688303E-15));
#397=CARTESIAN_POINT('Origin',(0.,2.5,0.));
#398=CARTESIAN_POINT('Origin',(0.,2.5,0.));
#399=CARTESIAN_POINT('Origin',(0.,1.25,0.));
#400=CARTESIAN_POINT('',(13.1,0.,-1.60428730688303E-15));
#401=CARTESIAN_POINT('',(13.1,1.25,-1.60428730688303E-15));
#402=CARTESIAN_POINT('',(-13.1,0.,0.));
#403=CARTESIAN_POINT('Origin',(0.,0.,0.));
#404=CARTESIAN_POINT('Origin',(0.,0.,0.));
#405=CARTESIAN_POINT('Origin',(-20.,0.,0.));
#406=CARTESIAN_POINT('',(-62.1588809368651,-72.7566567414821,3.67640370168502));
#407=CARTESIAN_POINT('',(-62.1588809368651,-21.9566567414821,3.67640370168502));
#408=UNCERTAINTY_MEASURE_WITH_UNIT(LENGTH_MEASURE(0.01),#416,
'DISTANCE_ACCURACY_VALUE',
'Maximum model space distance between geometric entities at asserted c
onnectivities');
#409=UNCERTAINTY_MEASURE_WITH_UNIT(LENGTH_MEASURE(0.01),#416,
'DISTANCE_ACCURACY_VALUE',
'Maximum model space distance between geometric entities at asserted c
onnectivities');
#410=UNCERTAINTY_MEASURE_WITH_UNIT(LENGTH_MEASURE(0.01),#416,
'DISTANCE_ACCURACY_VALUE',
'Maximum model space distance between geometric entities at asserted c
onnectivities');
#411=UNCERTAINTY_MEASURE_WITH_UNIT(LENGTH_MEASURE(0.01),#416,
'DISTANCE_ACCURACY_VALUE',
'Maximum model space distance between geometric entities at asserted c
onnectivities');
#412=(
GEOMETRIC_REPRESENTATION_CONTEXT(3)
GLOBAL_UNCERTAINTY_ASSIGNED_CONTEXT((#408))
GLOBAL_UNIT_ASSIGNED_CONTEXT((#416,#418,#419))
REPRESENTATION_CONTEXT('','3D')
);
#413=(
GEOMETRIC_REPRESENTATION_CONTEXT(3)
GLOBAL_UNCERTAINTY_ASSIGNED_CONTEXT((#409))
GLOBAL_UNIT_ASSIGNED_CONTEXT((#416,#418,#419))
REPRESENTATION_CONTEXT('','3D')
);
#414=(
GEOMETRIC_REPRESENTATION_CONTEXT(3)
GLOBAL_UNCERTAINTY_ASSIGNED_CONTEXT((#410))
GLOBAL_UNIT_ASSIGNED_CONTEXT((#416,#418,#419))
REPRESENTATION_CONTEXT('','3D')
);
#415=(
GEOMETRIC_REPRESENTATION_CONTEXT(3)
GLOBAL_UNCERTAINTY_ASSIGNED_CONTEXT((#411))
GLOBAL_UNIT_ASSIGNED_CONTEXT((#416,#418,#419))
REPRESENTATION_CONTEXT('','3D')
);
#416=(
LENGTH_UNIT()
NAMED_UNIT(*)
SI_UNIT(.MILLI.,.METRE.)
);
#417=(
LENGTH_UNIT()
NAMED_UNIT(*)
SI_UNIT(.CENTI.,.METRE.)
);
#418=(
NAMED_UNIT(*)
PLANE_ANGLE_UNIT()
SI_UNIT($,.RADIAN.)
);
#419=(
NAMED_UNIT(*)
SI_UNIT($,.STERADIAN.)
SOLID_ANGLE_UNIT()
);
#420=SHAPE_DEFINITION_REPRESENTATION(#423,#428);
#421=SHAPE_DEFINITION_REPRESENTATION(#424,#429);
#422=SHAPE_DEFINITION_REPRESENTATION(#425,#430);
#423=PRODUCT_DEFINITION_SHAPE('',$,#432);
#424=PRODUCT_DEFINITION_SHAPE('',$,#433);
#425=PRODUCT_DEFINITION_SHAPE('',$,#434);
#426=PRODUCT_DEFINITION_SHAPE($,$,#17);
#427=PRODUCT_DEFINITION_SHAPE($,$,#18);
#428=SHAPE_REPRESENTATION('',(#252,#282,#283),#412);
#429=SHAPE_REPRESENTATION('',(#253),#413);
#430=SHAPE_REPRESENTATION('',(#262),#414);
#431=PRODUCT_DEFINITION_CONTEXT('part definition',#442,'design');
#432=PRODUCT_DEFINITION('FL-1LF-25KF','FL-LF1-25KF',#435,#431);
#433=PRODUCT_DEFINITION('6.35 tube for tube end version',
'6.35 tube for tube end version',#436,#431);
#434=PRODUCT_DEFINITION('FL-25KF','FL-25KF',#437,#431);
#435=PRODUCT_DEFINITION_FORMATION('',$,#444);
#436=PRODUCT_DEFINITION_FORMATION('',$,#445);
#437=PRODUCT_DEFINITION_FORMATION('',$,#446);
#438=PRODUCT_RELATED_PRODUCT_CATEGORY('FL-LF1-25KF','FL-LF1-25KF',(#444));
#439=PRODUCT_RELATED_PRODUCT_CATEGORY('6.35 tube for tube end version',
'6.35 tube for tube end version',(#445));
#440=PRODUCT_RELATED_PRODUCT_CATEGORY('FL-25KF','FL-25KF',(#446));
#441=APPLICATION_PROTOCOL_DEFINITION('international standard',
'automotive_design',2009,#442);
#442=APPLICATION_CONTEXT(
'Core Data for Automotive Mechanical Design Process');
#443=PRODUCT_CONTEXT('part definition',#442,'mechanical');
#444=PRODUCT('FL-1LF-25KF','FL-LF1-25KF',$,(#443));
#445=PRODUCT('6.35 tube for tube end version',
'6.35 tube for tube end version',$,(#443));
#446=PRODUCT('FL-25KF','FL-25KF',$,(#443));
ENDSEC;
END-ISO-10303-21;
